PrimaNota.ru - самый крупный в мире бесплатный архив песенных текстов, аккордов, табулатур и нот


Muse - Please Please Let Me Get What - бас-таба, видео

Регистрация Запомнить меня
Войти через:  Facebook Google Twitter Vk Yandex Mail.ru

Muse - Please Please Let Me Get What - бас-таба, видео

Печатать
Просмотров: 151
Artist: Muse

Album: B-Sides ( Feeling Good CD2 )

Song: Please Please Let Me Get What

____________________________________


Intro (wait)

Verse

G||------------------------------------------------------|
D||------------------------------------------------------|
A||------------------------------------------------------|
E||--5-5-5-5-5-5--0-0-0-0-0-0--5-5-5-5-5-5--0-0-0-0-0-0--|

G||------------------------------------------------------|
D||------------------------------------------------------|
A||--4-4-4-4-4-4--5-5-5-5-5-5--7-7-7-7-7-7---------------|
E||-----------------------------------------0-0-0-0-0-0--|

Chorus

G||------------------------------------------|
D||------------------------------------------|
A||--5-5-5-5-5-5--7-7-7-7-7-7----------------|
E||----------------------------5-5-5--4-4-4--|

G||-----------------------------------------|
D||-----------------------------------------|
A||--5-5-5-5-5-5--5-5-5-5-5-5--7-7-7-7-7-7--|
E||-----------------------------------------|

G||----------------------------------|
D||----------------------------------|
A||----------------------------------|
E||--2-2222--4-4444--5-5555--7-7777--|

G||-------------------|
D||-------------------|
A||--5-5-5-5-5-5---7--|
E||-------------------|

Verse 2

G||------------------------------------------------------|
D||------------------------------------------------------|
A||------------------------------------------------------|
E||--5-5-5-5-5-5--0-0-0-0-0-0--5-5-5-5-5-5--0-0-0-0-0-0--|

G||------------------------------------------------------|
D||------------------------------------------------------|
A||--4-4-4-4-4-4--5-5-5-5-5-5--7-7-7-7-7-7---------------|
E||-----------------------------------------0-0-0-0-0-0--|

Chorus 2 

G||------------------------------------------|
D||------------------------------------------|
A||--5-5-5-5-5-5--7-7-7-7-7-7----------------|
E||----------------------------5-5-5--4-4-4--|

G||-----------------------------------------|
D||-----------------------------------------|
A||--5-5-5-5-5-5--5-5-5-5-5-5--7-7-7-7-7-7--|
E||-----------------------------------------|

G||----------------------------------|
D||----------------------------------|
A||----------------------------------|
E||--2-2222--4-4444--5-5555--7-7777--|

G||-------------------|
D||-------------------|
A||--5-5-5-5-5-5---7--|
E||-------------------|

Verse 3

G||------------------------------------------------------|
D||------------------------------------------------------|
A||------------------------------------------------------|
E||--5-5-5-5-5-5--0-0-0-0-0-0--5-5-5-5-5-5--0-0-0-0-0-0--|

G||------------------------------------------------------|
D||------------------------------------------------------|
A||--4-4-4-4-4-4--5-5-5-5-5-5--7-7-7-7-7-7---------------|
E||-----------------------------------------0-0-0-0-0-0--|

Chorus 3

G||------------------------------------------|
D||------------------------------------------|
A||--5-5-5-5-5-5--7-7-7-7-7-7----------------|
E||----------------------------5-5-5--4-4-4--|

G||-----------------------------------------|
D||-----------------------------------------|
A||--5-5-5-5-5-5--5-5-5-5-5-5--7-7-7-7-7-7--|
E||-----------------------------------------|

G||----------------------------------|
D||----------------------------------|
A||----------------------------------|
E||--2-2222--4-4444--5-5555--7-7777--|

G||-------------------|-----|
D||-------------------|-----|
A||--5-5-5-5-5-5---7--|--5--|
E||-------------------|-----|

Tab by: Pedro Zappa
Добавлено: 10.06.2012
Другие материалы по этой песне:
  • Аккорды и текст

Страница создана 10.06.2012
http://primanota.ru/muse/please-please-let-me-get-what-chords.htm
Привет, Гость.
Предлагаем пройти революционный курс по гитаре.
Подарок от PrimaNota.Ru, забирай!