PrimaNota.ru - самый крупный в мире бесплатный архив песенных текстов, аккордов, табулатур и нот


Muse - Montpellier Jam - бас-таба, видео

Регистрация Запомнить меня
Войти через:  Facebook Google Twitter Vk Yandex Mail.ru

Muse - Montpellier Jam - бас-таба, видео

Печатать
Просмотров: 144
------------------------------------------------------------------------------
                             Montpellier Jam - Muse
------------------------------------------------------------------------------

Tuning: EADG

The bass has a delay and an octave effect on it for the whole thing. If you 
don't have a delay pedal, I've tabbed out the echoes, which are the notes in 
brackets. You should play them slightly lighter than the previous notes to 
imitate the effect.


Intro:
                                                                               _
G|----------5-(5)-0-(0-0)-----------5-(5)-0-(0-0)----------------------------|  |
D|---------------------------------------------------------------------------|  |
A|-3-(3-3)-----------------1-(1-1)-------------------------------------------|  |
E|---------------------------------------------------------------------------|  |
                                                                                 > x 2
G|---------------------------------------------------------------------------|  |
D|---------------------------------------------------------------------------|  |
A|---------------------------------------------------------------------------|  |
E|-1-(1-1-1-1-1-1-1-1-1-1-1-1-1-1-1)-----------------------------------------| _|

Goes up an octave at the end on the 3rd and 4th time...
                                                                               _
G|----------5-(5)-0-(0-0)-----------5-(5)-0-(0-0)----------------------------|  |
D|---------------------------------------------------------------------------|  |
A|-3-(3-3)-----------------1-(1-1)-------------------------------------------|  |
E|---------------------------------------------------------------------------|  |
                                                                                 > x 2
G|---------------------------------------------------------------------------|  |
D|----------3-(3-3-3-3-3-3-3-3-3-3-3-3)--------------------------------------|  |
A|---------------------------------------------------------------------------|  |
E|-1-(1-1)-------------------------------------------------------------------| _|


Main riff (after the drum roll):
                                                                               _
G|--------5-(5)-7-(7)-8-(8)---------8-(8)-7-(7)-5-(5)------------------------|  |
D|---------------------------------------------------------------------------|  |
A|-3-(3)---------------------1-(1)-------------------------------------------|  |
E|---------------------------------------------------------------------------|  |
                                                                                 > x 4
G|--------5-(5)--------------------------------------------------------------|  |
D|--------------8-(8)-7-(7)---------7-(7)-5-(5)-3-(3)------------------------|  |
A|---------------------------------------------------------------------------|  |
E|-1-(1)---------------------1-(1)-------------------------------------------| _|


Outro:

G|----------5-(5)-0-(0-0)-----------5-(5)-0-(0-0)----------------------------|
D|---------------------------------------------------------------------------|
A|-3-(3-3)-----------------3-(3-3)-------------------------------------------|
E|---------------------------------------------------------------------------|

G|----------5-(5)-0-(0-0)-----------5-(5)-0-(0-0)----------------------------|
D|---------------------------------------------------------------------------|
A|-3-(3-3)-----------------3-(3-3)-----------------3~------------------------|
E|---------------------------------------------------------------------------|

===============================================================================
Добавлено: 17.06.2013
Другие материалы по этой песне:
  • Аккорды и текст

Страница создана 17.06.2013
http://primanota.ru/muse/montpellier-jam-chords.htm
Привет, Гость.
Предлагаем пройти революционный курс по гитаре.
Подарок от PrimaNota.Ru, забирай!