PrimaNota.ru - самый крупный в мире бесплатный архив песенных текстов, аккордов, табулатур и нот


Muse - Jfk Defector - таба, видео

Регистрация Запомнить меня
Войти через:  Facebook Google Twitter Vk Yandex Mail.ru

Muse - Jfk Defector - таба, видео

Печатать
Просмотров: 173
Tuning: DADGBe

This the version with the JFK

Intro/Riff
e|--------------------------------------------------------------------15\-----|
B|--------------------------------------------------------------------15\-----|
G|----------------------------------------------------------------------------|
D|--0---------------0--0------4---2-------------0--0------4---2---------------|
A|--0---(X4)--------0--0------4---2-------------0--0------4---2---------------|
D|--0---------------0--0------4---2-------------0--0------4---2---------------|

Pre Chorus

e|--------------------------------------------------|
B|--------------------------------------------------|
G|--------------------------------------------------|
D|--------------------------------------------------|
A|-----------------------------------(X2)-----------|
D|--0--12\--0--12\--0-0-12\--0--12\-----------------|

Chorus
                       Quick pick on the 11  Ghost/mute note on fret 2
e|--------------------------------------------X---X---X------------------------|
B|--------------------------------------------X---X---X----6~------------------|
G|--------------------------------------------X---X---X----5~------------------|
D|-----------------------------6-6-7-7-7-7----X---X---X------------------------|
A|-----------------------------6-6-7-7-7-7---(2)-(2)-(2)-----------------------|
D|--0--12\--0--12\--0-0-10\-0--6-6-7-7-7-7----X---X---X------------------------|

e|---6-6-6-6-6-6-6-6---------7-7---------------------------------------------|
B|---7-7-7-7-7-7-7-7---------8-8---------------------------------------------|
G|---6-6-6-6-6-6-6-6---------7-7---------------------------------------------|
D|-------------------(0)-(0)-------------------------------------------------|
A|-------------------(0)-----------------------------------------------------|
D|---------------------------------5-4-5-7-8--7------------------------------|

                                          
e|--------------------------------------------X---X---X------------------------|
B|--------------------------------------------X---X---X------------------------|
G|--------------------------------------------X---X---X------------------------|
D|-----------------------------6-6-7-7-7-7----X---X---X------------------------|
A|-----------------------------6-6-7-7-7-7---(2)-(2)-(2)-----------------------|
D|--0--12\--0--12\--0-0-10\-0--6-6-7-7-7-7----X---X---X------------------------| 

e|---6-6-6-6-6-6-6-6---------7-7---------------------------------------------|  
B|---7-7-7-7-7-7-7-7---------8-8---------------------------------------------|
G|---6-6-6-6-6-6-6-6---------7-7---------------------------------------------| Repeat these
D|-------------------(0)-(0)-------------------------------------------------| 2 sequences twice
A|-------------------(0)-----------------------------------------------------|
D|---------------------------------5-4-5-7-8--7------------------------------|

End of chorus

e|--------------------------------------------------|
B|--------------------------------------------------|
G|--------------------------------------------------|
D|--------------------------------------------------|
A|-----------------------------------(X2)-----------|
D|--0--12\--0--12\--0-0-12\--0--12\-----------------|

Verse Bass part
                                   At the end of the verse
e|-----------------------------------------------|
B|-----------------------------------------------|
G|-----------------------------------------------|
D|-----------------------------------------------|
A|-----------------------------------------------|
D|---------------------------------5-4-5-7-8--7--|

Chorus 2

e|--------------------------------------------X---X---X------------------------|
B|--------------------------------------------X---X---X------------------------|
G|--------------------------------------------X---X---X------------------------|
D|-----------------------------6-6-7-7-7-7----X---X---X------------------------|
A|-----------------------------6-6-7-7-7-7---(2)-(2)-(2)-----------------------|
D|--0--12\--0--12\--0-0-10\-0--6-6-7-7-7-7----X---X---X------------------------| 

e|---6-6-6-6-6-6-6-6---------7-7---------------------------------------------|  
B|---7-7-7-7-7-7-7-7---------8-8---------------------------------------------|
G|---6-6-6-6-6-6-6-6---------7-7---------------------------------------------| Repeat these
D|-------------------(0)-(0)-------------------------------------------------| 2 sequences twice
A|-------------------(0)-----------------------------------------------------|
D|---------------------------------5-4-5-7-8--7------------------------------|

End of chorus 2

e|--------------------------------------------------|
B|--------------------------------------------------|
G|--------------------------------------------------|
D|--------------------------------------------------|
A|-----------------------------------(X2)-----------|
D|--0--12\--0--12\--0-0-12\--0--12\-----------------|
 
Verse 2 bass part 

e|-------------------------------------------------------------------------------|
B|-------------------------------------------------------------------------------|
G|----------------------------------------------------------4-4-4-4--------------|
D|----------7-7-7-7---------7-7-7-7---------7-7-7-7------------------(0)---------|
A|--5-5-5-5---------5-5-5-5---------4-4-4-4---------5-5-5-5----------------------|
D|-------------------------------------------------------------------------------|

e|------------------------------------------------------------------------------|
B|------------------------------------------------------------------------------|
G|----------3-3-3-3---------3-3-3-3-----4-4-4-----------------------------------|
D|------------------------------------------------------------------------------|
A|--4-4-4-4---------4-4-4-4-----------------------------------------------------|
D|--------------------------------------------------5-4-5-7-8--7----------------|

Chorus 3

e|--------------------------------------------X---X---X------------------------|
B|--------------------------------------------X---X---X------------------------|
G|--------------------------------------------X---X---X------------------------|
D|-----------------------------6-6-7-7-7-7----X---X---X------------------------|
A|-----------------------------6-6-7-7-7-7---(2)-(2)-(2)-----------------------|
D|--0--12\--0--12\--0-0-10\-0--6-6-7-7-7-7----X---X---X------------------------| 

e|---6-6-6-6-6-6-6-6---------7-7---------------------------------------------|  
B|---7-7-7-7-7-7-7-7---------8-8---------------------------------------------|
G|---6-6-6-6-6-6-6-6---------7-7---------------------------------------------| Repeat these
D|-------------------(0)-(0)-------------------------------------------------| 2 sequences twice
A|-------------------(0)-----------------------------------------------------|
D|---------------------------------5-4-5-7-8--7------------------------------|

Solo

e|-14-14-14-14--17-17-17-15-15-15---14~-14-14-14-17-17-15-15-----------------|
B|-----------------------------------------------------------------------|
G|--11-11-11-11-14-14-14-12-12-12---------11-11-11-14-14-12-12----------------| 
D|-----------------------------------------------------------------------|
A|-----------------------------------------------------------------------|
D|-----------------------------------------------------------------------|

e|--14-14--19-19----20-20-----------15-15--19-19--18-18--17-17---------------|
B|-------------------------19-19---------------------------------------------|
G|----11-11--16-16--17-17--17-17----12-12--16-16--15-15--14-14---------------|
D|---------------------------------------------------------------------------|
A|---------------------------------------------------------------------------|
D|---------------------------------------------------------------------------|

e|-/14---14-14-17-17-15------/14~---14-14-17-17-15-15---14b-br---/19/-/20--14~/15~--/19~-\18-/17--|
B|------------------------------------------------------------------------------------------------|
G|------11-11----14-14-12-------------11----14-14-12----------------------------------------------| 
D|------------------------------------------------------------------------------------------------|
A|------------------------------------------------------------------------------------------------|
D|------------------------------------------------------------------------------------------------|

Hold the note with vibrato
e|--22----21----19----18----19----18--17-------(22)--|
B|---------------------------------------------------|
G|---------------------------------------------------|
D|---------------------------------------------------|
A|---------------------------------------------------|
D|---------------------------------------------------|

Strings solo                       Quick pre chorus
e|-----------------------------------------------|
B|-----------------------------------------------|
G|-----------------------------------------------|
D|-----------------------------------------------|
A|-----------------------------------------------|
D|---------------------------------5-4-5-7-8--7--|

Chorus 4

e|--------------------------------------------X---X---X------------------------|
B|--------------------------------------------X---X---X------------------------|
G|--------------------------------------------X---X---X------------------------|
D|-----------------------------6-6-7-7-7-7----X---X---X------------------------|
A|-----------------------------6-6-7-7-7-7---(2)-(2)-(2)-----------------------|
D|--0--12\--0--12\--0-0-10\-0--6-6-7-7-7-7----X---X---X------------------------| 

e|---6-6-6-6-6-6-6-6---------7-7---------------------------------------------|  
B|---7-7-7-7-7-7-7-7---------8-8---------------------------------------------|
G|---6-6-6-6-6-6-6-6---------7-7---------------------------------------------| Repeat these
D|-------------------(0)-(0)-------------------------------------------------| 2 sequences twice
A|-------------------(0)-----------------------------------------------------|
D|---------------------------------5-4-5-7-8--7------------------------------|

Solo

e|-14-14-14-14-17-17-17-15-15----14~-14--14-14-17-17-15-15------------------|
B|--------------------------------------------------------------------------|
G|--11-11-11-11-14-14-14-12-12----------11-11-11-14-14-12-12----------------| 
D|--------------------------------------------------------------------------|
A|--------------------------------------------------------------------------|
D|--------------------------------------------------------------------------|
                                                 tremolo
e|--14-14--19-19--20-20--14-14----15-15--19-19--18-18-18-18-17-17-----------------|
B|---------------------------------------------------------------------------|
G|----11-11--16-16--17-17--11-11----12-12--16-16--15-15-15-15-14-14---------------|
D|---------------------------------------------------------------------------|
A|---------------------------------------------------------------------------|
D|---------------------------------------------------------------------------|

e|-/14---14-14-17-17-15------/14~-----14-14-17-17-15-15---14b-br---/19/-/20--14~/15~--/19~-18-/17--|
B|-------------------------------------------------------------------------------------------------|
G|------11-11----14-14-12--------11-11--11-11-14-14-12---------------------------------------------| 
D|-------------------------------------------------------------------------------------------------|
A|-------------------------------------------------------------------------------------------------|
D|-------------------------------------------------------------------------------------------------|



End    Hold the note
e|-----22--------------------------------------------|
B|---------------------------------------------------|
G|---------------------------------------------------|
D|---------------------------------------------------|
A|---------------------------------------------------|
D|---------------------------------------------------|
************************************

| /   slide up
| \   slide down
| h   hammer-on
| p   pull-off
| ~   vibrato
| +   harmonic
| x   Mute note
| b   Bend
| pb  Pre-bend
| br  Bend release
| pbr Pre-bend release
| brb Bend release bend

************************************
Добавлено: 12.09.2015
Другие материалы по этой песне:
  • Аккорды и текст

Страница создана 12.09.2015
http://primanota.ru/muse/jfk-defector-chords.htm
Привет, Гость.
Предлагаем пройти революционный курс по гитаре.
Подарок от PrimaNota.Ru, забирай!