PrimaNota.ru - самый крупный в мире бесплатный архив песенных текстов, аккордов, табулатур и нот


Muse - Hysteria Live - таба, видео

Регистрация Запомнить меня
Войти через:  Facebook Google Twitter Vk Yandex Mail.ru

Muse - Hysteria Live - таба, видео

Печатать
Просмотров: 246
-------------------------------------------------------------------------------
                           Hysteria Live- Muse
-------------------------------------------------------------------------------
Tabbed by: Sovaso
Tuning: Standard
Album: Absolution (Studio version)

Guitar 1: Matt Bellamy
Intro
e|---------------------------------------------------------------------------|
B|---------------------------------------------------------------------------|
G|-7-7-7-7-7-7-7-7-7-7-7-7-6-6-6-6-------------------------------------------|
D|---------------------------------4-4-4-4-4-4-4-4-5-5-5-5-5-5-5-5-4-4-4-4---|
A|---------------------------------------------------------------------------|
E|---------------------------------------------------------------------------|

e|---------------------------------------------------------------------------|
B|---------------------------------------------------------------------------|
G|-7-7-7-7-7-7-7-7-7-7-7-7-7-7-7-7-7-7-7-7-7-7-7-7--6-6-6-6-6-6--6-6-7-7-7-7-|
D|---------------------------------------------------------------------------|
A|---------------------------------------------------------------------------|
E|---------------------------------------------------------------------------|

e|---------------------------------------------------------------------------|
B|---------------------------------------------------------------------------|
G|-7-7-7-7-7-7-7-7-7-7-7-7-7-7-7-7-7-7-7-7-7-7-7-7-7-7-7-77-7-7-7-777-7777---|
D|---------------------------------------------------------------------------|
A|---------------------------------------------------------------------------|
E|---------------------------------------------------------------------------|

Dom Clicks in

Chris' Bass riff!
e|---------------------------------------------------------------------------|
B|---------------------------------------------------------------------------|
G|-2-------------------------------------------------------------------------|
D|-2-------------------------------------------------------------------------|
A|-0-------------------------------------------------------------------------|
E|---------------------------------------------------------------------------|

Rest for Four bars
e|---------------------------------------------------------------------------|
B|---------------------------------------------------------------------------|
G|---------------------------------------------------------------------------|
D|---------------------------------------------------------------------------|
A|-1//////////////////////////////////////////////////////////////////24-----|
E|-xxxxxxxxxxxxxxxxxxxxxxxxxxxxxxxxxxxxxxxxxxxxxxxxxxxxxxxxxxxxxxxxxxx-------|
    Take your pick and slide it starting at first fret to the top until first guitar entry

Main Guitar riff
E|-----------------------------------------------------------------------|
B|-------------------------12brb10-----------------------------12brb10---|
G|--14--14-14-14--14-14-----------------13--13-13-13--13-13--------------|
D|--x---x--x--x---x--x------------------x---x--x--x---x--x---------------|
A|--12--12-12-12--12-12-----------------11--11-11-11--11-11--------------|
E|-----------------------------------------------------------------------|

e|------------------------------------------------------------------|
B|------------------------12brb10---------------------x-12brbrbr----|
G|----------------------------------------------------x-------------|
D|-15--15-15-15-15-15------------------14-14-14-14-14-x-------------|
A|-x---x--x--x---x--x------------------x--x--x--x--x----------------|
E|-13--13-13-13-13-13------------------12-12-12-12-12---------------|

Verse:
rest for 15 bars until:

e|--------------------------------------|
B|--------------------------------------|
G|--------------------------------------|
D|--------------------------------------|
A|-7-x-x-x--7-x-x-x-7-7-7-7-x-x-x-x-----|
E|-5-x-x-x--5-x-x-x-5-5-5-5-x-x-x-x-----|

Chorus:
E|-----------------------------------------------------------------|
B|-----------------------------------------------------------------|
G|--5--5-5-5-5-5-5--5-5-5-5-5-5-5----------------------------------|
D|--5--5-5-5-5-5-5--5-5-5-5-5-5-5----5--5-5-5-5-5-5--5-5-5-5-5-5-5-|
A|--3--3-3-3-3-3-3--3-3-3-3-3-3-3----5--5-5-5-5-5-5--5-5-5-5-5-5-5-|
E|-----------------------------------3--3-3-3-3-3-3--3-3-3-3-3-3-3-|
                                                                           X2
e|-----------------------------------------------------------------|
B|-----------------------------------------------------------------|
G|--7--7-7-7-7-7-7--7-7-7-7-7-7-7----------------------------------|
D|--7--7-7-7-7-7-7--7-7-7-7-7-7-7----7--7-7-7-7-7-7--7-7-7-7-7-7-7-|
A|--5--5-5-5-5-5-5--5-5-5-5-5-5-5----7--7-7-7-7-7-7--7-7-7-7-7-7-7-|
E|-----------------------------------5--5-5-5-5-5-5--5-5-5-5-5-5-5-|


Post Chorus
E|-----------------------------------------|
B|-----------------------------------------|
G|-----------------------------------------| x3
D|-----------------------------------------|
A|-----------------------------------------|
E|--0-0-10-0-10-12-0-10-0-10-9-0-9-8-0-8---|

Last time

E|-------------------------------------------|
B|-------------------------------------------|
G|-------------------------------------------|
D|-------------------------------------------|
A|-------------------------------------------|
E|--0-0-10-0-10-12-0-15-0-12-0-15-0-12-15h17-|

Pre Verse:

E|-----------------------------------------------------------------------|
B|-------------------------12brb10-----------------------------12brb10---|
G|--14--14-14-14--14-14-----------------13--13-13-13--13-13--------------|
D|--x---x--x--x---x--x------------------x---x--x--x---x--x---------------|
A|--12--12-12-12--12-12-----------------11--11-11-11--11-11--------------|
E|-----------------------------------------------------------------------|

e|------------------------------------------------------------------|
B|------------------------12brb10---------------------x-12brbrbr----|
G|----------------------------------------------------x-------------|
D|-15--15-15-15-15-15------------------14-14-14-14-14-x-------------|
A|-x---x--x--x---x--x------------------x--x--x--x--x----------------|
E|-13--13-13-13-13-13------------------12-12-12-12-12---------------|

Verse:
Guitar gets the bass riff!
e|------------------------------------------------------------------------------|
B|------------------------------------------------------------------------------|
G|------------------------------------------------------------------------------|
D|------------------------------------------------------------------------------|
A|-0-0-10-0-10-12-0-10-0-7-0-8-8-7-5-7------------------------------------------|
E|-------------------------------------0-0-10-0-10-12-0-15-0-12-0-15-15-0-15-17-|

e|------------------------------------------------------------------------------|
B|------------------------------------------------------------------------------|
G|------------------------------------------------------------------------------|
D|-0-0-10-0-10-12-0-10-0-10-9-0-9-8-0-8-7---------------------------------------|
A|------------------------------------------0-0-10-0-10-12-0-10-0-7-0-8-8-7-5-7-|
E|------------------------------------------------------------------------------|

Then

e|--------------------------------------|
B|--------------------------------------|
G|--------------------------------------|
D|--------------------------------------|
A|-7-x-x-x--7-x-x-x-7-7-7-7-x-x-x-x-----|
E|-5-x-x-x--5-x-x-x-5-5-5-5-x-x-x-x-----|

Chorus:
E|-----------------------------------------------------------------|
B|-----------------------------------------------------------------|
G|--5--5-5-5-5-5-5--5-5-5-5-5-5-5----------------------------------|
D|--5--5-5-5-5-5-5--5-5-5-5-5-5-5----5--5-5-5-5-5-5--5-5-5-5-5-5-5-|
A|--3--3-3-3-3-3-3--3-3-3-3-3-3-3----5--5-5-5-5-5-5--5-5-5-5-5-5-5-|
E|-----------------------------------3--3-3-3-3-3-3--3-3-3-3-3-3-3-|
                                                                           X2
e|-----------------------------------------------------------------|
B|-----------------------------------------------------------------|
G|--7--7-7-7-7-7-7--7-7-7-7-7-7-7----------------------------------|
D|--7--7-7-7-7-7-7--7-7-7-7-7-7-7----7--7-7-7-7-7-7--7-7-7-7-7-7-7-|
A|--5--5-5-5-5-5-5--5-5-5-5-5-5-5----7--7-7-7-7-7-7--7-7-7-7-7-7-7-|
E|-----------------------------------5--5-5-5-5-5-5--5-5-5-5-5-5-5-|


Post Chorus
E|-----------------------------------------|
B|-----------------------------------------|
G|-----------------------------------------| x3
D|-----------------------------------------|
A|-----------------------------------------|
E|--0-0-10-0-10-12-0-10-0-10-9-0-9-8-0-8---|

Last time

E|-------------------------------------------|
B|-------------------------------------------|
G|-------------------------------------------|
D|-------------------------------------------|
A|-------------------------------------------|
E|--0-0-10-0-10-12-0-15-0-12-0-15-0-12-15h17-|

Solo!
Matt usually plays the recorded solo So here that is

Part 1
e|---------------------------------------------------------------------------------------|
B|--------17-17-------18-18-------18-18-17-17----17-------17-17-------18-18-17-17----17--|
G|--14 14-------14-14-------14-14-------------14----13-13-------13-13-------------13-----|
D|---------------------------------------------------------------------------------------|
A|---------------------------------------------------------------------------------------|
E|---------------------------------------------------------------------------------------|

e|--------------------17-17--------------------------------------------------------------|
B|--------18-18-------------------18-18-------17-17-------17-17-------18-18-------18-18--|
G|--14-14-------14-14-------14-14-------14-14-------14-14-------14-14-------14-14--------|
D|---------------------------------------------------------------------------------------|
A|---------------------------------------------------------------------------------------|
E|---------------------------------------------------------------------------------------|

e|--------------------------------------------------------------------------------17-17--|
B|--17-17----17-------17-17-------18-18-------18-18-17-17----17-------18-18--------------|
G|--------14----13-13-------13-13-------13-13-------------13----14-14-------14-14--------|
D|---------------------------------------------------------------------------------------|
A|---------------------------------------------------------------------------------------|
E|---------------------------------------------------------------------------------------|

e|---------------------------------------------------------------------------------------|
B|--------18-18-------17-17-17----------15----------13----------12-----------------------|
G|--14-14-------14-14----------14-14-14--------------------------------------------------|
D|-----------------------------------------15-15-15----14-14-14----12-12-12--------------|
A|---------------------------------------------------------------------------------------|
E|---------------------------------------------------------------------------------------|

Part 2
e|---------------------------------------------------------------------------------------|
B|--13-------12b--10-12-------12-12-13-15--------13b-12-13--------15-13-12---------------|
G|-----12---------------12----------------14---------------14----------------------------|
D|--------14---------------12----------------15---------------14-------------------------|
A|---------------------------------------------------------------------------------------|
E|---------------------------------------------------------------------------------------|

e|----------------------------------------------------------------------12-------10b-8---|
B|--13-------12b--10-12-------12-12-13-14b-----13b-12-13-------15-13-12----13------------|
G|-----12---------------12-------------------------------14-------------------12---------|
D|--------14---------------12--------------14b--------------14---------------------------|
A|---------------------------------------------------------------------------------------|
E|---------------------------------------------------------------------------------------|

e|--10-------10-10-12-13-------13b-13p12----12---10b----12--------10b--8--10-------------|
B|-----12----------------15--------------13----------------13----------------12----------|
G|--------12----------------14--------------------------------12----------------12-------|
D|---------------------------------------------------14----------------------------------|
A|---------------------------------------------------------------------------------------|
E|---------------------------------------------------------------------------------------|

e|--10-10-12-13-------13b-13p12----12--10b----12-------10b--8--10--------10-10b----------|
B|--------------15--------------13---------------13---------------12---------------------|
G|-----------------14-------------------------------12---------------12------------------|
D|-----------------------------------------14--------------------------------------------|
A|---------------------------------------------------------------------------------------|
E|---------------------------------------------------------------------------------------|

e|--13-------13b-13p12----12--10b----------|
B|-----15--------------13------------------|
G|--------14-------------------------------|
D|---------------------------------14~~~~~-|
A|-----------------------------------------|
E|-----------------------------------------|

Chorus:
E|-----------------------------------------------------------------|
B|-----------------------------------------------------------------|
G|--5--5-5-5-5-5-5--5-5-5-5-5-5-5----------------------------------|
D|--5--5-5-5-5-5-5--5-5-5-5-5-5-5----5--5-5-5-5-5-5--5-5-5-5-5-5-5-|
A|--3--3-3-3-3-3-3--3-3-3-3-3-3-3----5--5-5-5-5-5-5--5-5-5-5-5-5-5-|
E|-----------------------------------3--3-3-3-3-3-3--3-3-3-3-3-3-3-|
                                                                           X2
e|-----------------------------------------------------------------|
B|-----------------------------------------------------------------|
G|--7--7-7-7-7-7-7--7-7-7-7-7-7-7----------------------------------|
D|--7--7-7-7-7-7-7--7-7-7-7-7-7-7----7--7-7-7-7-7-7--7-7-7-7-7-7-7-|
A|--5--5-5-5-5-5-5--5-5-5-5-5-5-5----7--7-7-7-7-7-7--7-7-7-7-7-7-7-|
E|-----------------------------------5--5-5-5-5-5-5--5-5-5-5-5-5-5-|


Outro
E|-----------------------------------------|
B|-----------------------------------------|
G|-----------------------------------------| x4
D|-----------------------------------------|
A|-----------------------------------------|
E|--0-0-10-0-10-12-0-10-0-10-9-0-9-8-0-8---|

Finale outro:

Now when I saw Muse live, they pulled an incredibly unexpected trick and turned the 
outro of this song into
none other than AC/DC's classic Back in Black!!

Cha!
e|-----------------------------------|
B|-----------------------------------|
G|-----------------------------------|
D|-----------------------------------|
A|---5p4p2h4-------2------2-----2----|
E|-0---------3-------5\-----6\----7\-|

e|-----------------------------------|
B|-----------------------------------|
G|-----------------------------------|
D|-----------------------------------|
A|---5p4p2h4-------2------2-----2----|
E|-0---------3-------5\-----6\----7\-|


e|----------------------------------|
B|----------------------------------|
G|----------------------------------|
D|---5p4p2h4-----2------2------2----|
A|-0---------3\----5\-----6\-----7\-|
E|----------------------------------|

e|----------------------------------|
B|----------------------------------|
G|----------------------------------|
D|---5p4p2h4-----2------2------2----|
A|-0---------3\----5\-----6\-----7\-|
E|----------------------------------|

e|-----------------------------------|
B|-----------------------------------|
G|-----------------------------------|
D|-----------------------------------|
A|---5p4p2h4-------2------2-----2----|
E|-0---------3-------5\-----6\----7\-|

e|-----------------------------------|
B|-----------------------------------|
G|-----------------------------------|
D|-----------------------------------|
A|---5p4p2h4-------2------2-----2----|
E|-0---------3-------5\-----6\----7\-|

e|-0~------------------------------------------------------------------------|
B|-0~------------------------------------------------------------------------|
G|-1~------------------------------------------------------------------------|
D|-2~------------------------------------------------------------------------|
A|-2~------------------------------------------------------------------------|
E|-0~------------------------------------------------------------------------|
            Whammy that a lot!

That's it! Thanks!!

************************************

| /   slide up
| \   slide down
| h   hammer-on
| p   pull-off
| ~   vibrato
| +   harmonic
| x   Mute note
| b   Bend
| pb  Pre-bend
| br  Bend release
| pbr Pre-bend release
| brb Bend release bend

************************************
Добавлено: 20.09.2014
Другие материалы по этой песне:

Страница создана 10.04.2012
http://primanota.ru/muse/hysteria-live-chords.htm
Привет, Гость.
Предлагаем пройти революционный курс по гитаре.
Подарок от PrimaNota.Ru, забирай!