PrimaNota.ru - самый крупный в мире бесплатный архив песенных текстов, аккордов, табулатур и нот


Muse - Exogenesis Symphony Part 3 Redemption - таба, бас-таба, видео

Регистрация Запомнить меня
Войти через:  Facebook Google Twitter Vk Yandex Mail.ru

Muse - Exogenesis Symphony Part 3 Redemption - таба, бас-таба, видео

Печатать
Просмотров: 392
Уроки эстрадного вокала в Санкт-Петербурге
Авторы музыки: Matthew Bellamy
Авторы текста: Matthew Bellamy
As recorded by Muse
(From the 2009 Album REDEMPTION)

Transcribed by Unregistered
        

Words and Music by Matthew Bellamy

Gtr I (E A D G B E) - 'Piano'
Gtr II (E A D G B E) - 'Ensemble'

  Q=181
 3/4
  Gtr I
  Q  Q  Q    Q  Q  Q    Q  Q  Q    Q  Q  Q
|-7--------|----------|----------|----------|
|-------0--|-------0--|-------0--|-------0--|
|----0-----|----0-----|----0-----|----0-----|
|-0--------|-0--------|-0--------|-0--------|
|----------|----------|----------|----------|
|----------|----------|----------|----------|


  Q  Q  Q    Q  Q  Q    Q  Q  Q    Q  Q  Q
|-7--------|----------|----------|------------|
|-------0--|-------0--|-------0--|-------0----|
|----------|----------|----------|------------|
|-1--------|-1--------|-1--------|-1----------|
|----9-----|----9-----|----9-----|----9-------|
|----------|----------|----------|------------|


  Q  Q  Q    Q  Q  Q    Q  Q  Q    Q  Q  Q
|-7--------|----------|-5--------|-3--------|
|-------0--|-------0--|-------0--|-------0--|
|----0-----|----0-----|----0-----|----0-----|
|-2--------|-2--------|-2--------|-2--------|
|----------|----------|----------|----------|
|----------|----------|----------|----------|


  Q  Q  Q    Q  Q  Q    Q  Q  Q    Q  Q  Q
|-3--------|----------|----------|-0----------|
|-------1--|-------1--|-------1--|-------1----|
|----0-----|----0-----|----0-----|----0-------|
|-2--------|-2--------|-2--------|-2----------|
|----------|----------|----------|------------|
|----------|----------|----------|------------|


   Q  Q  Q    Q  Q  Q     Q  Q  Q    Q  Q  Q
|-12--------|----------|-10--------|-8--------|
|--------1--|-------1--|--------1--|-------1--|
|-----0-----|----0-----|-----0-----|----0-----|
|--2--------|-2--------|--2--------|-2--------|
|-----------|----------|-----------|----------|
|-----------|----------|-----------|----------|


  Q  Q  E  E    Q  Q  Q    Q  Q  Q    Q  Q  Q
|-7--------3--|----------|----------|-3----------|
|-------0-(0)-|-3-----0--|-------0--|-------0----|
|----0--------|----0-----|----0-----|----0-------|
|-0-----------|-0--------|-0--------|-0----------|
|-------------|----------|----------|------------|
|-------------|----------|----------|------------|


  Q  Q  Q    Q  Q  Q    Q  Q  Q    Q  Q  Q
|-5--------|----------|----------|-0--2--3--|
|-------3--|-------1--|----------|----------|
|----0-----|----0-----|-------0--|----0--2--|
|-0--------|-0--------|-0--4-----|-0--------|
|----------|----------|----------|----------|
|----------|----------|----------|----------|


  Q  Q  Q    Q  Q  Q    Q  Q  Q    Q  Q  Q
|-3--------|----------|----------|------------|
|-------0--|-------0--|-------0--|-------0----|
|----0-----|----0-----|----0-----|----0-------|
|-0--------|-0--------|-0--------|-0----------|
|----------|----------|----------|------------|
|----------|----------|----------|------------|


   Q   Q  Q      Q   Q  Q      Q   Q  Q      Q   Q  Q
|--7---------|-------------|-------------|-------------|
|---------0--|----------0--|----------0--|----------0--|
|------0-----|-------0-----|-------0-----|-------0-----|
|--0---------|---0---------|---0---------|---0---------|
|------------|-------------|-------------|-------------|
|------------|-------------|-------------|-------------|
|
| Gtr II
|  H.           +H.           +H.           +H.
|-10---------|-(10)--------|-(10)--------|-(10)--------|
|------------|-------------|-------------|-------------|
|------------|-------------|-------------|-------------|
|------------|-------------|-------------|-------------|
|------------|-------------|-------------|-------------|
|------------|-------------|-------------|-------------|


   Q   Q  Q      Q   Q  Q      Q   Q  Q      Q   Q  Q
|--7---------|-------------|-------------|---------------|
|---------0--|----------0--|----------0--|----------0----|
|------------|-------------|-------------|---------------|
|--1---------|---1---------|---1---------|---1-----------|
|------9-----|-------9-----|-------9-----|-------9-------|
|------------|-------------|-------------|---------------|
|
|  H.            H.            H.            H.
|------------|-------------|-------------|---------------|
|-16---------|-(16)--------|-(16)--------|-(16)----------|
|------------|-------------|-------------|---------------|
|------------|---4---------|---1---------|---4-----------|
|------------|-------------|-------------|---------------|
|------------|-------------|-------------|---------------|


   Q   Q  Q      Q   Q  Q      Q   Q  Q      Q   Q  Q
|--7---------|-------------|---5---------|---3---------|
|---------0--|----------0--|----------0--|----------0--|
|------0-----|-------0-----|-------0-----|-------0-----|
|--2---------|---2---------|---2---------|---2---------|
|------------|-------------|-------------|-------------|
|------------|-------------|-------------|-------------|
|
|  H.           +H.            H.            H.
|-12---------|-(12)--------|-(12)--------|-(12)--------|
|------------|-------------|-------------|---0---------|
|--0---------|--(0)--------|---2---------|-------------|
|------------|-------------|-------------|-------------|
|------------|-------------|-------------|-------------|
|------------|-------------|-------------|-------------|


    Q   Q  Q      Q   Q  Q     Q   Q  Q      Q   Q  Q
|---3---------|-------------|------------|---0-----------|
|----------1--|----------1--|---------1--|----------1----|
|-------0-----|-------0-----|------0-----|-------0-------|
|---2---------|---2---------|--2---------|---2-----------|
|-------------|-------------|------------|---------------|
|-------------|-------------|------------|---------------|
|
|   H.           +H.           H.           +H.
|-(12)--------|-(12)--------|-10---------|-(10)----------|
|---1---------|--(1)--------|-(1)--------|--(1)----------|
|-------------|-------------|------------|---------------|
|-------------|-------------|------------|---------------|
|-------------|-------------|------------|---------------|
|-------------|-------------|------------|---------------|


   Q   Q  Q     Q   Q  Q     Q   Q  Q    Q   Q  Q
|-12---------|------------|-10---------|-8---------|
|---------1--|---------1--|---------1--|--------1--|
|------0-----|------0-----|------0-----|-----0-----|
|--2---------|--2---------|--2---------|-2---------|
|------------|------------|------------|-----------|
|------------|------------|------------|-----------|
|
|  H.          +H.           H.          H.
|--8---------|-(8)--------|--7---------|-5---------|
|-(1)--------|-(1)--------|--0---------|-----------|
|------------|------------|------------|-2---------|
|------------|------------|------------|-----------|
|------------|------------|------------|-----------|
|------------|------------|------------|-----------|


  Q   Q  E  E     Q   Q  Q    Q   Q  Q    Q   Q  Q
|-7---------3--|------------|-----------|-3-----------|
|--------0-(0)-|--3------0--|--------0--|--------0----|
|-----0--------|------0-----|-----0-----|-----0-------|
|-0------------|--0---------|-0---------|-0-----------|
|--------------|------------|-----------|-------------|
|--------------|------------|-----------|-------------|
|
| H.             +H.          H.          H.
|-8------------|-(8)--------|-5---------|-3-----------|
|-0------------|-(0)--------|-----------|-------------|
|--------------|------------|-2---------|-0-----------|
|--------------|------------|-----------|-------------|
|--------------|------------|-----------|-------------|
|--------------|------------|-----------|-------------|


  Q   Q  Q     Q   Q  Q    Q   Q  Q    Q   Q  Q
|-5---------|------------|-----------|-0---2--3--|
|--------3--|---------1--|-----------|-----------|
|-----0-----|------0-----|--------0--|-----0--2--|
|-0---------|--0---------|-0---4-----|-0---------|
|-----------|------------|-----------|-----------|
|-----------|------------|-----------|-----------|
|
| H.          +H.          H.          H.
|-5---------|-(5)--------|-3---------|-2---------|
|-----------|------------|-----------|-----------|
|-2---------|-(2)--------|-0---------|-----------|
|-----------|------------|-----------|-4---------|
|-----------|------------|-----------|-----------|
|-----------|------------|-----------|-----------|


  Q   Q  Q     Q   Q  Q     Q   Q  Q     Q   Q  Q
|-3---------|------------|------------|--------------|
|--------0--|---------0--|---------0--|---------0----|
|-----0-----|------0-----|------0-----|------0-------|
|-0---------|--0---------|--0---------|--0-----------|
|-----------|------------|------------|--------------|
|-----------|------------|------------|--------------|
|
| H.          +H.          +H.          +H.
|-3---------|-(3)--------|-(3)--------|-(3)----------|
|-----------|------------|------------|--------------|
|-0---------|-(0)--------|-(0)--------|-(0)----------|
|-----------|------------|------------|--------------|
|-----------|------------|------------|--------------|
|-----------|------------|------------|--------------|


   Q   Q  Q      Q   Q  Q      Q   Q  Q      Q   Q  Q
|-10---------|-------------|-------------|-------------|
|---------3--|----------3--|----------3--|----------3--|
|------0-----|-------0-----|-------0-----|-------0-----|
|--0---------|---0---------|---0---------|---0---------|
|------------|-------------|-------------|-------------|
|------------|-------------|-------------|-------------|
|
|  H.           +H.           +H.           +H.
|-22---------|-(22)--------|-(22)--------|-(22)--------|
|------------|-------------|-------------|-------------|
|------------|-------------|-------------|-------------|
|--3---------|--(3)--------|--(3)--------|--(3)--------|
|------------|-------------|-------------|-------------|
|------------|-------------|-------------|-------------|


    Q   E  E  Q      Q   Q  Q      Q   Q  Q      Q   Q  Q
|--10---8--6--8--|-------------|-------------|----------1----|
|-------------3--|----------3--|----------3--|----------3----|
|-------0-(0)----|-------0-----|-------0-----|-------0-------|
|---0------------|---0---------|---0---------|---0-----------|
|----------------|-------------|-------------|---------------|
|----------------|-------------|-------------|---------------|
|
|  +H.              +H.           +H.           +H.
|-(22)-----------|-(22)--------|-(22)--------|-(22)----------|
|----------------|-------------|-------------|---------------|
|----------------|-------------|-------------|---------------|
|--(3)-----------|--(3)--------|--(3)--------|--(3)----------|
|----------------|-------------|-------------|---------------|
|----------------|-------------|-------------|---------------|


    Q   Q  Q      Q   Q  Q      Q   Q  Q      Q   Q  Q
|--10---------|----------1--|--15---------|--13---------|
|----------3--|----------3--|----------3--|----------3--|
|-------0-----|-------0-----|-------0-----|-------0-----|
|---1---------|---1---------|---1---------|---1---------|
|-------------|-------------|-------------|-------------|
|-------------|-------------|-------------|-------------|
|
|  +H.           +H.           +H.           +H.
|-(22)--------|-(22)--------|-(22)--------|-(22)--------|
|-------------|-------------|-------------|-------------|
|-------------|-------------|-------------|-------------|
|--(3)--------|--(3)--------|--(3)--------|--(3)--------|
|-------------|-------------|-------------|-------------|
|-------------|-------------|-------------|-------------|


   Q   Q  Q      Q   Q   E  E      Q   Q  Q      Q   Q  Q
|-13---------|----------11-10--|--11---------|---------------|
|---------4--|-----------4-(4)-|----------4--|----------4----|
|------0-----|-------0---------|-------0-----|-------0-------|
|--1---------|---1-------------|---1---------|---1-----------|
|------------|-----------------|-------------|---------------|
|------------|-----------------|-------------|---------------|
|
|  H.           +H.                H.           +H.
|-23---------|-(23)------------|-(23)--------|-(23)----------|
|------------|-----------------|-------------|---------------|
|------------|-----------------|-------------|---------------|
|-(3)--------|--(3)------------|---3---------|--(3)----------|
|------------|-----------------|-------------|---------------|
|------------|-----------------|-------------|---------------|


   Q    Q   Q     Q    Q   Q     Q    Q   Q      Q    Q   Q
|-22---22--22--|-22---22--22--|-23---23--23--|--25---25--25--|
|-15---15--15--|-15---15--15--|-16---16--16--|--18---18--18--|
|-------3---7--|-------3---7--|-------3---7--|--------3---7--|
|--0-----------|--0-----------|--0-----------|---0-----------|
|--------------|--------------|--------------|---------------|
|--------------|--------------|--------------|---------------|
|
|  H.             H.             H.             +H.
|-22-----------|-22-----------|-23-----------|-(23)----------|
|--6----6---6--|--6----6---6--|--8----8---8--|--10---10--10--|
|--------------|--------------|--------------|---------------|
|--------------|--------------|--------------|---------------|
|--------------|--------------|--------------|---------------|
|--------------|--------------|--------------|---------------|
   Q    Q   Q     Q    Q   Q     Q    Q   Q      Q    Q   Q


   Q    Q   Q      Q    Q   Q      Q    Q   Q     Q    Q   Q
|-25---25--25--|--25---25--25--|--23---23--23--|-23---23--23----|
|-18---18--18--|--18---18--18--|--16---16--16--|-16---16--16----|
|-------3---8--|--------3---8--|--------3---8--|-------3---8----|
|--1-----------|---1-----------|---1-----------|--1-------------|
|--------------|---------------|---------------|----------------|
|--------------|---------------|---------------|----------------|
|
|  H.             +H.             +H.             H.
|-25-----------|-(25)----------|-(25)----------|-23-------------|
|-10---10--10--|--10---10--10--|---8----8---8--|--8----8---8----|
|--------------|---------------|---------------|----------------|
|--------------|---------------|---------------|----------------|
|--------------|---------------|---------------|----------------|
|--------------|---------------|---------------|----------------|
   Q    Q   Q      Q    Q   Q      Q    Q   Q     Q    Q   Q


   Q    Q   Q     Q    Q   Q     Q    Q   Q      Q    Q   Q
|-22---22--22--|-22---22--22--|-23---23--23--|--25---25--25--|
|-15---15--15--|-15---15--15--|-16---16--16--|--18---18--18--|
|-------3---7--|-------3---7--|-------3---7--|--------3---7--|
|--0-----------|--0-----------|--0-----------|---0-----------|
|--------------|--------------|--------------|---------------|
|--------------|--------------|--------------|---------------|
|
|  H.             H.             H.             +H.
|-22-----------|-22-----------|-23-----------|-(23)----------|
|--6----6---6--|--6----6---6--|--8----8---8--|--10---10--10--|
|--------------|--------------|--0----0---0--|---2----2---2--|
|--3----3---3--|--3----3---3--|--------------|---------------|
|--------------|--------------|--------------|---------------|
|--------------|--------------|--------------|---------------|
   Q    Q   Q     Q    Q   Q     Q    Q   Q      Q    Q   Q


   Q    Q   Q      Q    Q   Q      Q    Q   Q     Q    Q   Q
|-25---25--25--|--25---25--25--|--23---23--23--|-23---23--23----|
|-18---18--18--|--18---18--18--|--16---16--16--|-16---16--16----|
|-------3---8--|--------3---8--|--------3---8--|-------3---8----|
|--1-----------|---1-----------|---1-----------|--1-------------|
|--------------|---------------|---------------|----------------|
|--------------|---------------|---------------|----------------|
|
|  H.             +H.             +H.             H.
|-25-----------|-(25)----------|-(25)----------|-23-------------|
|-10---10--10--|--10---10--10--|---8----8---8--|--8----8---8----|
|--2----2---2--|---2----2---2--|---0----0---0--|--0----0---0----|
|--------------|---------------|---------------|----------------|
|--------------|---------------|---------------|----------------|
|--------------|---------------|---------------|----------------|
   Q    Q   Q      Q    Q   Q      Q    Q   Q     Q    Q   Q


   Q    Q   Q      Q    Q   Q     Q    Q   Q      Q    Q   Q
|-11---11--11--|--11---11--11--|-11---11--11--|--11---11--11--|
|-13---13--13--|--13---13--13--|-13---13--13--|--13---13--13--|
|-----------1--|------------1--|-----------1--|------------1--|
|-------1------|--------1------|-------1------|--------1------|
|--------------|---------------|--------------|---------------|
|--4-----------|---4-----------|--4-----------|---4-----------|
|
|  H.             +H.             H.             +H.
|-22-----------|-(22)----------|-23-----------|-(23)----------|
|--3-----------|--(3)----------|--------------|---------------|
|--------------|---------------|--8-----------|--(8)----------|
|--------------|---------------|--------------|---------------|
|--------------|---------------|--------------|---------------|
|--------------|---------------|--------------|---------------|


   Q    Q   Q      Q    Q   Q     Q    Q   Q      Q    Q   Q
|-13---13--13--|--13---13--13--|-11---11--11--|--11---11--11----|
|--9----9---9--|---9----9---9--|-13---13--13--|--13---13--13----|
|-----------1--|------------1--|-----------1--|------------1----|
|-------1------|--------1------|-------1------|--------1--------|
|--------------|---------------|--------------|-----------------|
|--4-----------|---4-----------|--4-----------|---4-------------|
|
|  H.             +H.             H.             +H.
|-25-----------|-(25)----------|-23-----------|-(23)------------|
|--6-----------|--(6)----------|--4-----------|--(4)------------|
|--------------|---------------|--------------|-----------------|
|--------------|---------------|--------------|-----------------|
|--------------|---------------|--------------|-----------------|
|--------------|---------------|--------------|-----------------|


   Q    Q   Q      Q    Q   Q      Q    Q   Q     Q   Q   Q
|-15---15--15--|--15---15--15--|--11---15------|-------------|
|-16---16--16--|--16---16--16--|-----------11--|--8---9--11--|
|-------3---8--|--------3---8--|--------3---8--|------3---8--|
|--1-----------|---1-----------|---1-----------|--1----------|
|--------------|---------------|---------------|-------------|
|--------------|---------------|---------------|-------------|
|
|  H.             +H.             +H        Q     Q   Q   Q
|-27-----------|-(27)----------|-(27)---3------|-20------11--|
|--8-----------|--(8)----------|--(8)------28--|-----18------|
|--------------|---------------|------------8--|----------0--|
|--------------|---------------|---------------|--8---6------|
|--------------|---------------|---------------|-------------|
|--------------|---------------|---------------|-------------|
                                  +Q    Q   Q


   Q    Q   Q     Q    Q   Q     Q    Q   Q     Q    Q   Q
|-15---15--15--|-15---15--15--|-15---15--15--|-15---15--15----|
|-16---16--16--|-16---16--16--|-16---16--16--|-16---16--16----|
|-------3---8--|-------3---8--|-------3---8--|-------3---8----|
|--1-----------|--1-----------|--1-----------|--1-------------|
|--------------|--------------|--------------|----------------|
|--------------|--------------|--------------|----------------|
|
|  H.             H.             H.             H.
|-15-----------|-27-----------|-25-----------|-23-------------|
|--------------|--8-----------|--6-----------|--4-------------|
|-(0)----------|--------------|--------------|----------------|
|--------------|--------------|--------------|----------------|
|--------------|--------------|--------------|----------------|
|--------------|--------------|--------------|----------------|


   Q    Q   Q      Q    Q   Q     Q    Q   Q      Q    Q   Q
|-11---11--11--|--11---11--11--|-11---11--11--|--11---11--11--|
|-13---13--13--|--13---13--13--|-13---13--13--|--13---13--13--|
|-----------1--|------------1--|-----------1--|------------1--|
|-------1------|--------1------|-------1------|--------1------|
|--------------|---------------|--------------|---------------|
|--4-----------|---4-----------|--4-----------|---4-----------|
|
|  H.             +H.             H.             +H.
|-22-----------|-(22)----------|-23-----------|-(23)----------|
|--3-----------|--(3)----------|--------------|---------------|
|--------------|---------------|--8-----------|--(8)----------|
|--------------|---------------|--------------|---------------|
|--------------|---------------|--------------|---------------|
|--------------|---------------|--------------|---------------|


   Q    Q   Q      Q    Q   Q     Q    Q   Q      Q    Q   Q
|-13---13--13--|--13---13--13--|-11---11--11--|--11---11--11----|
|--9----9---9--|---9----9---9--|-13---13--13--|--13---13--13----|
|-----------1--|------------1--|-----------1--|------------1----|
|-------1------|--------1------|-------1------|--------1--------|
|--------------|---------------|--------------|-----------------|
|--4-----------|---4-----------|--4-----------|---4-------------|
|
|  H.             +H.             H.             +H.
|-25-----------|-(25)----------|-23-----------|-(23)------------|
|--6-----------|--(6)----------|--4-----------|--(4)------------|
|--------------|---------------|--------------|-----------------|
|--------------|---------------|--------------|-----------------|
|--------------|---------------|--------------|-----------------|
|--------------|---------------|--------------|-----------------|


   Q    Q   Q      Q    Q   Q      Q    Q   Q     Q   Q   Q
|-15---15--15--|--15---15--15--|--11---15------|-------------|
|-16---16--16--|--16---16--16--|-----------11--|--8---9--11--|
|-------3---8--|--------3---8--|--------3---8--|------3---8--|
|--1-----------|---1-----------|---1-----------|--1----------|
|--------------|---------------|---------------|-------------|
|--------------|---------------|---------------|-------------|
|
|  H.             +H.             +H        Q     Q   Q   Q
|-27-----------|-(27)----------|-(27)---3------|-20------11--|
|--8-----------|--(8)----------|--(8)------28--|-----18------|
|--------------|---------------|------------8--|----------0--|
|--------------|---------------|---------------|--8---6------|
|--------------|---------------|---------------|-------------|
|--------------|---------------|---------------|-------------|
                                  +Q    Q   Q


   Q    Q   Q     Q    Q   Q     Q    Q   Q     Q    Q   Q
|-15---15--15--|-15---15--15--|-15---15--15--|-15---15--15----|
|-16---16--16--|-16---16--16--|-16---16--16--|-16---16--16----|
|-------3---8--|-------3---8--|-------3---8--|-------3---8----|
|--1-----------|--1-----------|--1-----------|--1-------------|
|--------------|--------------|--------------|----------------|
|--------------|--------------|--------------|----------------|
|
|  H.             H.             H.             H.
|-15-----------|-27-----------|-25-----------|-23-------------|
|--------------|--8-----------|--6-----------|--4-------------|
|-(0)----------|--------------|--------------|----------------|
|--------------|--------------|--------------|----------------|
|--------------|--------------|--------------|----------------|
|--------------|--------------|--------------|----------------|


   Q    Q   Q      Q    Q   Q     Q    Q   Q      Q    Q   Q
|-11---11--11--|--11---11--11--|-11---11--11--|--11---11--11--|
|-13---13--13--|--13---13--13--|-13---13--13--|--13---13--13--|
|-----------1--|------------1--|-----------1--|------------1--|
|-------1------|--------1------|-------1------|--------1------|
|--------------|---------------|--------------|---------------|
|--4-----------|---4-----------|--4-----------|---4-----------|
|
|  H.             +H.             H.             +H.
|-22-----------|-(22)----------|-23-----------|-(23)----------|
|--3-----------|--(3)----------|--------------|---------------|
|--------------|---------------|--8-----------|--(8)----------|
|--------------|---------------|--------------|---------------|
|--------------|---------------|--------------|---------------|
|--------------|---------------|--------------|---------------|


   Q    Q   Q      Q    Q   Q     Q    Q   Q      Q    Q   Q
|-13---13--13--|--13---13--13--|-11---11--11--|--11---11--11----|
|--9----9---9--|---9----9---9--|-13---13--13--|--13---13--13----|
|-----------1--|------------1--|-----------1--|------------1----|
|-------1------|--------1------|-------1------|--------1--------|
|--------------|---------------|--------------|-----------------|
|--4-----------|---4-----------|--4-----------|---4-------------|
|
|  H.             +H.             H.             +H.
|-25-----------|-(25)----------|-23-----------|-(23)------------|
|--6-----------|--(6)----------|--4-----------|--(4)------------|
|--------------|---------------|--------------|-----------------|
|--------------|---------------|--------------|-----------------|
|--------------|---------------|--------------|-----------------|
|--------------|---------------|--------------|-----------------|


   Q    Q   Q      Q    Q   Q     Q    Q   Q      Q    Q   Q
|-15---15--15--|--15---15--15--|-15---15--15--|--15---15--15--|
|-16---16--16--|--16---16--16--|-16---16--16--|--16---16--16--|
|-------3---8--|--------3---8--|-------3---8--|--------3---8--|
|--1-----------|---1-----------|--1-----------|---1-----------|
|--------------|---------------|--------------|---------------|
|--------------|---------------|--------------|---------------|
|
|  H.              H.             H.              H.
|-23-----------|-(23)----------|-27-----------|-(27)----------|
|-(4)----------|--11-----------|-16-----------|--18-----------|
|--------------|---3-----------|--8-----------|--10-----------|
|--------------|---------------|--------------|---------------|
|--------------|---------------|--------------|---------------|
|--------------|---------------|--------------|---------------|


   Q    Q   Q     Q    Q   Q      Q    Q   Q     Q    Q   Q
|-15---15--15--|-15---15--15--|--15---15--15--|-15---15--15----|
|-16---16--16--|-16---16--16--|--16---16--16--|-16---16--16----|
|-------3---8--|-------3---8--|--------3---8--|-------3---8----|
|--1-----------|--1-----------|---1-----------|--1-------------|
|--------------|--------------|---------------|----------------|
|--------------|--------------|---------------|----------------|
|
|  H.             H.              H.             H.
|-27-----------|-27-----------|-(27)----------|-27-------------|
|-20-----------|-11-----------|--30-----------|-16-------------|
|-12-----------|--3-----------|--22-----------|--8-------------|
|--------------|--------------|---------------|----------------|
|--------------|--------------|---------------|----------------|
|--------------|--------------|---------------|----------------|


   Q    Q   Q      Q    Q   Q      Q    Q   Q      Q    Q   Q
|-15---15--15--|--15---15--15--|--15---15--15--|--15---15--15--|
|-16---16--16--|--16---16--16--|--16---16--16--|--16---16--16--|
|-------3---8--|--------3---8--|--------3---8--|--------3---8--|
|--1-----------|---1-----------|---1-----------|---1-----------|
|--------------|---------------|---------------|---------------|
|--------------|---------------|---------------|---------------|
|
|  H.              H.              H.              H.
|-27-----------|-(27)----------|-(27)----------|-(27)----------|
|-15-----------|--16-----------|--18-----------|--20-----------|
|--7-----------|---8-----------|---------------|--12-----------|
|-12-----------|--13-----------|--15-----------|---------------|
|--------------|---6-----------|---8-----------|---------------|
|--------------|---------------|---------------|---------------|


   Q    Q   Q      Q    Q   Q      Q    Q   Q      Q    Q   Q
|-16---16--16--|--16---16--16--|--16---16--16--|--16---16--16----|
|-16---16--16--|--16---16--16--|--16---16--16--|--16---16--16----|
|-------3---8--|--------3---8--|--------3---8--|--------3---8----|
|--1-----------|---1-----------|---1-----------|---1-------------|
|--------------|---------------|---------------|-----------------|
|--------------|---------------|---------------|-----------------|
|
|  H.              H.              H.              H.
|-18-----------|-(18)----------|-(18)----------|-(18)------------|
|-11-----------|--20-----------|--18-----------|--16-------------|
|-27-----------|--12-----------|--10-----------|-----------------|
|--------------|---------------|---------------|--13-------------|
|--------------|---------------|---------------|-----------------|
|--------------|---------------|---------------|-----------------|


   Q    Q   Q     Q    Q   Q     Q    Q   Q     Q    Q    Q
|-15---15--15--|-15---15--15--|-15---15--15--|-15---15---15--|
|-16---16--16--|-16---16--16--|-16---16--16--|-16---16---16--|
|-----------5--|-----------5--|-----------5--|------------5--|
|-------5------|-------5------|-------5------|-------5-------|
|--3-----------|--3-----------|--3-----------|--3------------|
|--------------|--------------|--------------|---------------|
|
|  H.             H.             H.             Q   +H
|--------------|--------------|--------------|---------------|
|-15-----------|-16-----------|--------------|-20--(20)------|
|--7-----------|-12-----------|-22-----------|-12--(12)------|
|--------------|-13-----------|-15-----------|-22------------|
|--------------|--------------|-15-----------|---------------|
|--------------|--------------|--------------|---------------|


   Q    Q   Q     Q    Q   Q      Q    Q   Q     Q    Q   Q
|-15---15--15--|-11---11--11--|--11---11--11--|-11---11--11----|
|--8----8---8--|--8----8---8--|---8----8---8--|--8----8---8----|
|-----------5--|-----------5--|------------5--|-----------5----|
|-------5------|-------5------|--------5------|-------5--------|
|--3-----------|--3-----------|---3-----------|--3-------------|
|--------------|--------------|---------------|----------------|
|
|  H.             H.              H.             H.
|--8-----------|-11-----------|---------------|-15-------------|
|--1-----------|-13-----------|-(13)----------|-11-------------|
|--------------|--8-----------|--22-----------|----------------|
|--------------|--------------|--15-----------|-17-------------|
|--------------|--------------|---------------|----------------|
|--------------|--------------|---------------|----------------|


   Q    Q   Q      Q    Q   Q      Q    Q   Q      Q    Q   Q
|-16---16--16--|--16---16--16--|--16---16--16--|--16---16--16--|
|--------------|---------------|---------------|---------------|
|-17---17--17--|--17---17--17--|--17---17--17--|--17---17--17--|
|-----------8--|------------8--|------------8--|------------8--|
|--1-----------|---1-----------|---1-----------|---1-----------|
|------13------|-------13------|-------13------|-------13------|
|
|  H.              H.              H.              H.
|-28-----------|-(28)----------|-(28)----------|-(28)----------|
|-21-----------|---9-----------|--21-----------|---9-----------|
|-25-----------|---------------|---------------|---------------|
|-18-----------|---------------|---------------|---------------|
|--------------|---------------|---------------|---------------|
|--------------|---------------|---------------|---------------|


   Q    Q   Q      Q    Q   Q      Q    Q   Q      Q    Q   Q
|-15---15--15--|--15---15--15--|--15---15--15--|--15---15--15----|
|-13---13--13--|--13---13--13--|--13---13--13--|--16---16--16----|
|-----------8--|------------8--|------------8--|------------8----|
|-------5------|--------5------|--------5------|--------5--------|
|--6-----------|---6-----------|---6-----------|---6-------------|
|--------------|---------------|---------------|-----------------|
|
|  H.              H.             +H.             +H.
|-27-----------|-(27)----------|-(27)----------|-(27)------------|
|-20-----------|---8-----------|--(8)----------|--(8)------------|
|--------------|---------------|---------------|-----------------|
|--------------|---------------|---------------|-----------------|
|--------------|---------------|---------------|-----------------|
|--------------|---------------|---------------|-----------------|


   Q    Q   Q     Q    Q   Q     Q    Q   Q     Q    Q   Q
|-22---22--22--|-22---22--22--|-22---22--22--|-22---22--22--|
|-20---20--20--|-20---20--20--|-20---20--20--|-20---20--20--|
|-------2---7--|-------2---7--|-------2---7--|-------2---7--|
|--0-----------|--0-----------|--0-----------|--0-----------|
|--------------|--------------|--------------|--------------|
|--------------|--------------|--------------|--------------|
|
|  H.             H.             H.             H.
|-15-----------|--8-----------|-15-----------|--8-----------|
|--8-----------|--1-----------|--8-----------|--1-----------|
|--------------|--------------|--------------|--------------|
|--------------|--------------|--------------|--------------|
|--------------|--------------|--------------|--------------|
|--------------|--------------|--------------|--------------|


   Q    Q   Q     Q    Q   Q     Q    Q   Q     Q    Q   Q
|-22---22--22--|-22---22--22--|-22---22--22--|-22---22--22----|
|-20---20--20--|-20---20--20--|-20---20--20--|-20---20--20----|
|-------2---7--|-------2---7--|-------2---7--|-------2---7----|
|--0-----------|--0-----------|--0-----------|--0-------------|
|--------------|--------------|--------------|----------------|
|--------------|--------------|--------------|----------------|
|
|  H.             H.             H.             H.
|-15-----------|--8-----------|-15-----------|--8-------------|
|--8-----------|--1-----------|--8-----------|--1-------------|
|--------------|--------------|--------------|----------------|
|--------------|--------------|--------------|----------------|
|--------------|--------------|--------------|----------------|
|--------------|--------------|--------------|----------------|


   Q    Q   Q     Q    Q   Q     Q    Q   Q     Q    Q   Q
|-22---22--22--|-22---22--22--|-22---22--22--|-22---22--22--|
|-22---22--22--|-22---22--22--|-22---22--22--|-22---22--22--|
|-------2---7--|-------2---7--|-------2---7--|-------2---7--|
|--0-----------|--0-----------|--0-----------|--0-----------|
|--------------|--------------|--------------|--------------|
|--------------|--------------|--------------|--------------|
|
|  H.             H.             H.             H.
|-14-----------|--8-----------|-14-----------|--8-----------|
|--7-----------|--1-----------|--7-----------|--1-----------|
|--------------|--------------|--------------|--------------|
|--------------|--------------|--------------|--------------|
|--------------|--------------|--------------|--------------|
|--------------|--------------|--------------|--------------|


   Q    Q   Q     Q    Q   Q     Q    Q   Q     Q    Q   Q
|-22---22--22--|-22---22--22--|-22---22--22--|-22---22--22----|
|-22---22--22--|-22---22--22--|-22---22--22--|-22---22--22----|
|-------2---7--|-------2---7--|-------2---7--|-------2---7----|
|--0-----------|--0-----------|--0-----------|--0-------------|
|--------------|--------------|--------------|----------------|
|--------------|--------------|--------------|----------------|
|
|  H.             H.             H.             H.
|-14-----------|--8-----------|-14-----------|--8-------------|
|--7-----------|--1-----------|--7-----------|--1-------------|
|--------------|--------------|--------------|----------------|
|--------------|--------------|--------------|----------------|
|--------------|--------------|--------------|----------------|
|--------------|--------------|--------------|----------------|


   Q   Q  Q      Q   Q  Q      Q   Q  Q      Q   Q  Q
|--7---------|-------------|-------------|-------------|
|---------0--|----------0--|----------0--|----------0--|
|------0-----|-------0-----|-------0-----|-------0-----|
|--0---------|---0---------|---0---------|---0---------|
|------------|-------------|-------------|-------------|
|------------|-------------|-------------|-------------|
|
|  H.           +H.           +H.           +H.
|-10---------|-(10)--------|-(10)--------|-(10)--------|
|------------|-------------|-------------|-------------|
|------------|-------------|-------------|-------------|
|------------|-------------|-------------|-------------|
|------------|-------------|-------------|-------------|
|------------|-------------|-------------|-------------|


   Q   Q  Q      Q   Q  Q      Q   Q  Q      Q   Q  Q
|--7---------|-------------|-------------|---------------|
|---------0--|----------0--|----------0--|----------0----|
|------------|-------------|-------------|---------------|
|--1---------|---1---------|---1---------|---1-----------|
|------9-----|-------9-----|-------9-----|-------9-------|
|------------|-------------|-------------|---------------|
|
|  H.            H.            H.            H.
|------------|-------------|-------------|---------------|
|-16---------|-(16)--------|-(16)--------|-(16)----------|
|------------|-------------|-------------|---------------|
|------------|---4---------|---1---------|---4-----------|
|------------|-------------|-------------|---------------|
|------------|-------------|-------------|---------------|


   Q   Q  Q      Q   Q  Q      Q   Q  Q      Q   Q  Q
|--7---------|-------------|---5---------|---3---------|
|---------0--|----------0--|----------0--|----------0--|
|------0-----|-------0-----|-------0-----|-------0-----|
|--2---------|---2---------|---2---------|---2---------|
|------------|-------------|-------------|-------------|
|------------|-------------|-------------|-------------|
|
|  H.           +H.            H.            H.
|-12---------|-(12)--------|-(12)--------|-(12)--------|
|------------|-------------|-------------|---0---------|
|--0---------|--(0)--------|---2---------|-------------|
|------------|-------------|-------------|-------------|
|------------|-------------|-------------|-------------|
|------------|-------------|-------------|-------------|


    Q   Q  Q      Q   Q  Q     Q   Q  Q      Q   Q  Q
|---3---------|-------------|------------|---0-----------|
|----------1--|----------1--|---------1--|----------1----|
|-------0-----|-------0-----|------0-----|-------0-------|
|---2---------|---2---------|--2---------|---2-----------|
|-------------|-------------|------------|---------------|
|-------------|-------------|------------|---------------|
|
|   H.           +H.           H.           +H.
|-(12)--------|-(12)--------|-10---------|-(10)----------|
|---1---------|--(1)--------|-(1)--------|--(1)----------|
|-------------|-------------|------------|---------------|
|-------------|-------------|------------|---------------|
|-------------|-------------|------------|---------------|
|-------------|-------------|------------|---------------|


   Q   Q  Q     Q   Q  Q     Q   Q  Q    Q   Q  Q
|-12---------|------------|-10---------|-8---------|
|---------1--|---------1--|---------1--|--------1--|
|------0-----|------0-----|------0-----|-----0-----|
|--2---------|--2---------|--2---------|-2---------|
|------------|------------|------------|-----------|
|------------|------------|------------|-----------|
|
|  H.          +H.           H.          H.
|--8---------|-(8)--------|--7---------|-5---------|
|-(1)--------|-(1)--------|--0---------|-----------|
|------------|------------|------------|-2---------|
|------------|------------|------------|-----------|
|------------|------------|------------|-----------|
|------------|------------|------------|-----------|


  Q   Q  E  E     Q   Q  Q    Q   Q  Q    Q   Q  Q
|-7---------3--|------------|-----------|-3-----------|
|--------0-(0)-|--3------0--|--------0--|--------0----|
|-----0--------|------0-----|-----0-----|-----0-------|
|-0------------|--0---------|-0---------|-0-----------|
|--------------|------------|-----------|-------------|
|--------------|------------|-----------|-------------|
|
| H.             +H.          H.          H.
|-8------------|-(8)--------|-5---------|-3-----------|
|-0------------|-(0)--------|-----------|-------------|
|--------------|------------|-2---------|-0-----------|
|--------------|------------|-----------|-------------|
|--------------|------------|-----------|-------------|
|--------------|------------|-----------|-------------|


  Q   Q  Q     Q   Q  Q    Q   Q  Q    Q   Q  Q
|-5---------|------------|-----------|-0---2--3--|
|--------3--|---------1--|-----------|-----------|
|-----0-----|------0-----|--------0--|-----0--2--|
|-0---------|--0---------|-0---4-----|-0---------|
|-----------|------------|-----------|-----------|
|-----------|------------|-----------|-----------|
|
| H.          +H.          H.          H.
|-5---------|-(5)--------|-3---------|-2---------|
|-----------|------------|-----------|-----------|
|-2---------|-(2)--------|-0---------|-----------|
|-----------|------------|-----------|-4---------|
|-----------|------------|-----------|-----------|
|-----------|------------|-----------|-----------|


  Q   Q  Q     Q   Q  Q     Q   Q  Q     Q   Q  Q
|-3---------|------------|------------|--------------*|
|--------0--|---------0--|---------0--|---------0----*|
|-----0-----|------0-----|------0-----|------0-------*|
|-0---------|--0---------|--0---------|--0-----------*|
|-----------|------------|------------|--------------*|
|-----------|------------|------------|--------------*|
|
| H.          +H.          +H.          +H.
|-3---------|-(3)--------|-(3)--------|-(3)----------*|
|-----------|------------|------------|--------------*|
|-0---------|-(0)--------|-(0)--------|-(0)----------*|
|-----------|------------|------------|--------------*|
|-----------|------------|------------|--------------*|
|-----------|------------|------------|--------------*|



Duration Legend
---------------
W - whole; H - half; Q - quarter; E - 8th; S - 16th; T - 32nd; X - 64th; a - acciaccatura
+ - note tied to previous; . - note dotted; .. - note double dotted
Uncapitalized letters represent notes that are staccato (1/2 duration)
Irregular groupings are notated above the duration line
Duration letters will always appear directly above the note/fret number it represents the
duration for.  Duration letters with no fret number below them represent rests.  Multi-
bar rests are notated in the form Wxn, where n is the number of bars to rest for.  Low
melody durations appear below the staff

Tablature Legend
----------------
 h   - hammer-on
 p   - pull-off
 b   - bend
 pb  - pre-bend
 r   - bend release (if no number after the r, then release immediately)
 /\  - slide into or out of (from/to "nowhere")
 s   - legato slide
 S   - shift slide
 - natural harmonic
[n]  - artificial harmonic
n(n) - tapped harmonic
 ~   - vibrato
 tr  - trill
 T   - tap
 TP  - trem. picking
 PM  - palm muting
\n/  - tremolo bar dip; n = amount to dip
 \n  - tremolo bar down
 n/  - tremolo bar up
/n\  - tremolo bar inverted dip
 =   - hold bend; also acts as connecting device for hammers/pulls
 <> - volume swell (louder/softer)
 x   - on rhythm slash represents muted slash
 o   - on rhythm slash represents single note slash

Misc Legend
-----------
 |  - bar
||  - double bar
||o - repeat start
o|| - repeat end
*|  - double bar (ending)
 :  - bar (freetime)
 $  - Segno
 &  - Coda
Tempo markers -  = BPM(8/16=s8/s16), where s8 = swing 8ths, s16 = swing 16ths

Добавлено: 11.04.2012
Другие материалы по этой песне:

Страница создана 11.04.2012
http://primanota.ru/muse/exogenesis-symphony-part-3-redemption-chords.htm
Привет, Гость.
Предлагаем пройти революционный курс по гитаре.
Подарок от PrimaNota.Ru, забирай!