PrimaNota.ru - самый крупный в мире бесплатный архив песенных текстов, аккордов, табулатур и нот


Muse - Des - таба, видео

Регистрация Запомнить меня
Войти через:  Facebook Google Twitter Vk Yandex Mail.ru

Muse - Des - таба, видео

Печатать
Просмотров: 224
Author: 	Muse
Song:   	DES

Tabbed by: 	Erik Furlanis	erikfurlanis@libero.it

this is a brand new song by Muse. it was played on an american live some time ago, and
there's only a low-quality mp3 of this song. it may get very strong differences day by
day cos, as already said,it's a brand new song still to be ready.

you'd better play it with a 24-fret guitar!


Intro/Verse

e-------------------------------|
B-------------------------------|
G-------------------------------|
D--9p0--8p0--9p0--11p0-9p0-8p0--|
A-------------------------------|
E-------------------------------|


Bridge

(strum each chord 4x)

e-------------|
B-------------|
G--8-9-10-11--|
D-------------|
A--6-7--8--9--|
E-------------|


Chorus

(strum each cord 4x)

e----------------------------------------------------|
B----------------------------------------------------|
G--8-9-10-11--12-13-14-15--16-18-19-20--21-22-23-24--|
D----------------------------------------------------|
A--6-7--8--9--10-11-12-13--14-16-17-18--19-20-21-22--|
E----------------------------------------------------|


(very fast picking)

e-------------------------------------------------------------|
B------------------21-23-24--24-23-21-------------------------|
G--24-23-21-20--24--------------------20///23\\\21------------|
D-------------------------------------------------------------|
A---------------------------------------------------19h20p19--|
E-------------------------------------------------------------|


intro/verse:	repeat a lot of time
bridge:		repeat twice
chorus:		only one
verse:		repeat another lot of time
chorus:		only one
solo:		the solo starts from the intro line, and continues in some bendings
etctec.. haven't tabbed it out!

hope it suits quite well!!
Добавлено: 04.03.2012
Другие материалы по этой песне:

Страница создана 04.03.2012
http://primanota.ru/muse/des-chords.htm
Привет, Гость.
Предлагаем пройти революционный курс по гитаре.
Подарок от PrimaNota.Ru, забирай!