PrimaNota.ru - самый крупный в мире бесплатный архив песенных текстов, аккордов, табулатур и нот


Muse - Black Holes And Revaltions (album) - таба, видео

Регистрация Запомнить меня
Войти через:  Facebook Google Twitter Vk Yandex Mail.ru

Muse - Black Holes And Revaltions (album) - таба, видео

Печатать
Просмотров: 200
-------------------------------------------------------------------------------
			     TAKE A BOW - Muse
-------------------------------------------------------------------------------
Tuning: EADGBe

SYNTH BASS

e|-------------------------|-------------------------|-------------------------|
B|-------------------------|-------------------------|-------------------------|
G|-2-------2-------2-------|-3-------3-------3-------|-2-------2-------2-------|
D|---4---4---4---4---4---4-|---4---4---4---4---4---4-|---4---4---4---4---4---4-|
A|-----5-------5-------5---|-----5-------5-------5---|-----5-------5-------5---|
E|-------------------------|-------------------------|-------------------------|

e|-------------------------|-------------------------|-------------------------|
B|-------------------------|-------------------------|-------------------------|
G|-3-------3-------3-------|-2-------2-------2-------|-3-------3-------3-------|
D|---4---4---4---4---4---4-|---4---4---4---4---4---4-|---5---5---5---5---5---5-|
A|-----5-------5-------5---|-----5-------5-------5---|-----5-------5-------5---|
E|-------------------------|-------------------------|-------------------------|

e|-------------------------|-------------------------|
B|-------------------------|-------------------------|
G|-2-------2-------2-------|-2-------2-------2-------|
D|---4---4---4---4---4---4-|---4---4---4---4---4---4-|
A|-----5-------5-------5---|-----5-------5-------5---|
E|-------------------------|-------------------------|

e|-------------------------|-------------------------|-------------------------|
B|-------------------------|-------------------------|-------------------------|
G|-2-------2-------2-------|-3-------3-------3-------|-2-------2-------2-------|
D|---4---4---4---4---4---4-|---4---4---4---4---4---4-|---4---4---4---4---4---4-|
A|-----5-------5-------5---|-----5-------5-------5---|-----5-------5-------5---|
E|-------------------------|-------------------------|-------------------------|

e|-------------------------|-------------------------|-------------------------|
B|-------------------------|-------------------------|-------------------------|
G|-3-------3-------3-------|-2-------2-------2-------|-3-------3-------3-------|
D|---4---4---4---4---4---4-|---4---4---4---4---4---4-|---5---5---5---5---5---5-|
A|-----5-------5-------5---|-----5-------5-------5---|-----5-------5-------5---|
E|-------------------------|-------------------------|-------------------------|

e|-------------------------|-------------------------|
B|-------------------------|-------------------------|
G|-2-------2-------2-------|-3-------3-------3-------|
D|---4---4---4---4---4---4-|---5---5---5---5---5---5-|
A|-----5-------5-------5---|-----5-------5-------5---|
E|-------------------------|-------------------------|


e|-------------------------|-------------------------|-------------------------|
B|-------------------------|-------------------------|-------------------------|
G|-0-------0-------0-------|-0-------0-------0-------|-0-------0-------0-------|
D|---0---0---0---0---0---0-|---0---0---0---0---0---0-|---0---0---0---0---0---0-|
A|-----0-------0-------0---|-----1-------1-------1---|-----0-------0-------0---|
E|-------------------------|-------------------------|-------------------------|

e|-------------------------|-------------------------|-------------------------|
B|-------------------------|-------------------------|-------------------------|
G|-0-------0-------0-------|-0-------0-------0-------|-1-------1-------1-------|
D|---0---0---0---0---0---0-|---0---0---0---0---0---0-|---0---0---0---0---0---0-|
A|-----1-------1-------1---|-----0-------0-------0---|-----1-------1-------1---|
E|-------------------------|-------------------------|-------------------------|

e|-------------------------|-------------------------|-------------------------|
B|-------------------------|-------------------------|-------------------------|
G|-0-------0-------0-------|-1-------1-------1-------|-1-------1-------1-------|
D|---0---0---0---0---0---0-|---0---0---0---0---0---0-|---0---0---0---0---0---0-|
A|-----0-------0-------0---|-----1-------1-------1---|-----2-------2-------2---|
E|-------------------------|-------------------------|-------------------------|

e|-------------------------|-------------------------|-------------------------|
B|-------------------------|-------------------------|-------------------------|
G|-1-------1-------1-------|-1-------1-------1-------|-1-------1-------1-------|
D|---1---1---1---1---1---1-|---0---0---0---0---0---0-|---1---1---1---1---1---1-|
A|-----2-------2-------2---|-----2-------2-------2---|-----2-------2-------2---|
E|-------------------------|-------------------------|-------------------------|

e|-------------------------|-------------------------|-------------------------|
B|-------------------------|-------------------------|-------------------------|
G|-1-------1-------1-------|-1-------1-------1-------|-1-------1-------1-------|
D|---0---0---0---0---0---0-|---1---1---1---1---1---1-|---0---0---0---0---0---0-|
A|-----2-------2-------2---|-----3-------3-------3---|-----2-------2-------2---|
E|-------------------------|-------------------------|-------------------------|

e|-------------------------|-------------------------|-------------------------|
B|-------------------------|-------------------------|-------------------------|
G|-1-------1-------1-------|-1-------1-------1-------|-1-------1-------1-------|
D|---0---0---0---0---0---0-|---0---0---0---0---0---0-|---1---1---1---1---1---1-|
A|-----2-------2-------2---|-----2-------2-------2---|-----2-------2-------2---|
E|-------------------------|-------------------------|-------------------------|

e|-------------------------|-------------------------|-------------------------|
B|-------------------------|-------------------------|-------------------------|
G|-1-------1-------1-------|-1-------1-------1-------|-1-------1-------1-------|
D|---0---0---0---0---0---0-|---1---1---1---1---1---1-|---0---0---0---0---0---0-|
A|-----2-------2-------2---|-----2-------2-------2---|-----2-------2-------2---|
E|-------------------------|-------------------------|-------------------------|

e|-------------------------|-------------------------|-------------------------|
B|-------------------------|-------------------------|-------------------------|
G|-1-------1-------1-------|-1-------1-------1-------|-1-------1-------1-------|
D|---1---1---1---1---1---1-|---0---0---0---0---0---0-|---1---1---1---1---1---1-|
A|-----3-------3-------3---|-----2-------2-------2---|-----3-------3-------3---|
E|-------------------------|-------------------------|-------------------------|

e|-------------------------|-------------------------|-------------------------|
B|-1-------1-------1-------|-2-------2-------2-------|-1-------1-------1-------|
G|---2---2---2---2---2---2-|---2---2---2---2---2---2-|---2---2---2---2---2---2-|
D|-----3-------3-------3---|-----3-------3-------3---|-----3-------3-------3---|
A|-------------------------|-------------------------|-------------------------|
E|-------------------------|-------------------------|-------------------------|

e|-------------------------|-------------------------|-------------------------|
B|-2-------2-------2-------|-1-------1-------1-------|-2-------2-------2-------|
G|---2---2---2---2---2---2-|---2---2---2---2---2---2-|---3---3---3---3---3---3-|
D|-----3-------3-------3---|-----3-------3-------3---|-----3-------3-------3---|
A|-------------------------|-------------------------|-------------------------|
E|-------------------------|-------------------------|-------------------------|

e|-------------------------|-------------------------|-------------------------|
B|-1-------1-------1-------|-2-------2-------2-------|-3-------3-------3-------|
G|---2---2---2---2---2---2-|---3---3---3---3---3---2-|---3---3---3---3---3---3-|
D|-----3-------3-------3---|-----3-------3-------3---|-----3-------3-------3---|
A|-------------------------|-------------------------|-------------------------|
E|-------------------------|-------------------------|-------------------------|

e|-------------------------|-------------------------|-------------------------|
B|-3-------3-------3-------|-3-------3-------3-------|-3-------3-------3-------|
G|---3---3---3---3---3---3-|---3---3---3---3---3---3-|---3---3---3---3---3---3-|
D|-----4-------4-------4---|-----3-------3-------3---|-----4-------4-------4---|
A|-------------------------|-------------------------|-------------------------|
E|-------------------------|-------------------------|-------------------------|

e|-------------------------|-------------------------|-------------------------|
B|-3-------3-------3-------|-4-------4-------4-------|-3-------3-------3-------|
G|---3---3---3---3---3---3-|---3---3---3---3---3---3-|---3---3---3---3---3---3-|
D|-----3-------3-------3---|-----4-------4-------4---|-----3-------3-------3---|
A|-------------------------|-------------------------|-------------------------|
E|-------------------------|-------------------------|-------------------------|

e|-------------------------|-------------------------|-------------------------|
B|-4-------4-------4-------|-4-------4-------4-------|-4-------4-------4-------|
G|---3---3---3---3---3---3-|---3---3---3---3---3---3-|---4---4---4---4---4---4-|
D|-----4-------4-------4---|-----5-------5-------5---|-----5-------5-------5---|
A|-------------------------|-------------------------|-------------------------|
E|-------------------------|-------------------------|-------------------------|

e|-------------------------|-------------------------|-------------------------|
B|-4-------4-------4-------|-4-------4-------4-------|-4-------4-------4-------|
G|---3---3---3---3---3---3-|---4---4---4---4---4---4-|---3---3---3---3---3---3-|
D|-----5-------5-------5---|-----5-------5-------5---|-----5-------5-------5---|
A|-------------------------|-------------------------|-------------------------|
E|-------------------------|-------------------------|-------------------------|

e|-------------------------|-------------------------|-------------------------|
B|-4-------4-------4-------|-4-------4-------4-------|-4-------4-------4-------|
G|---4---4---4---4---4---4-|---3---3---3---3---3---3-|---4---4---4---4---4---4-|
D|-----6-------6-------6---|-----5-------5-------5---|-----6-------6-------6---|
A|-------------------------|-------------------------|-------------------------|
E|-------------------------|-------------------------|-------------------------|

e|-------------------------|-------------------------|-------------------------|
B|-4-------4-------4-------|-4-------4-------4-------|-4-------4-------4-------|
G|---3---3---3---3---3---3-|---4---4---4---4---4---4-|---3---3---3---3---3---3-|
D|-----5-------5-------5---|-----6-------6-------6---|-----5-------5-------5---|
A|-------------------------|-------------------------|-------------------------|
E|-------------------------|-------------------------|-------------------------|

e|-------------------------|-------------------------|-------------------------|
B|-4-------4-------4-------|-4-------4-------4-------|-4-------4-------4-------|
G|---4---4---4---4---4---4-|---3---3---3---3---3---3-|---3---3---3---3---3---3-|
D|-----6-------6-------6---|-----5-------5-------5---|-----5-------5-------5---|
A|-------------------------|-------------------------|-------------------------|
E|-------------------------|-------------------------|-------------------------|

e|-------------------------|-------------------------|
B|-4-------4-------4-------|-4-------4-------4-------|
G|---3---3---3---3---3---3-|---3---3---3---3---3---3-|
D|-----5-------5-------5---|-----5-------5-------5---|
A|-------------------------|-------------------------|
E|-------------------------|-------------------------|

SYNTH GUITAR

e--------------|-------------|-------------|-------------|
B|-------------|-------------|-------------|-------------|
G|---8---8---8-|-------------|-------------|-------------|
D|-------------|---9---9---9-|---8---8---8-|---8---8---8-|
A|-6---6---6---|-------------|-------------|-------------|
E|-------------|-7---7---7---|-6---6---6---|-6---6---6---|

e|-------------|-------------|-------------|-------------|
B|-------------|-------------|-------------|-------------|
G|---8---8---8-|-------------|-------------|-------------|
D|-------------|---9---9---9-|---6---6---6-|---6---6---6-|
A|-6---6---6---|-------------|-------------|-------------|
E|-------------|-7---7---7---|-4---4---4---|-4---4---4---|

e|-------------|-------------|-------------|-------------|
B|-------------|-------------|-------------|-------------|
G|---3---3---3-|-------------|-------------|-------------|
D|-------------|---4---4---4-|---3---3---3-|---3---3---3-|
A|-1---1---1---|-------------|-------------|-------------|
E|-------------|-2---2---2---|-1---1---1---|-1---1---1---|

e|-------------|-------------|-------------|-------------|
B|-------------|-------------|-------------|-------------|
G|---3---3---3-|-------------|---8---8---8-|---8---8---8-|
D|-------------|---4---4---4-|-------------|-------------|
A|-1---1---1---|-------------|-6---6---6---|-6---6---6---|
E|-------------|-2---2---2---|-------------|-------------|

e|-------------|-------------|-------------|-------------|
B|-------------|-------------|-------------|-------------|
G|-------------|-------------|---5---5---5-|---10--10--10|
D|---3---3---3-|---7---7---7-|-------------|-------------|
A|-------------|-------------|-3---3---3---|-8---8---8---|
E|-1---1---1---|-5---5---5---|-------------|-------------|

e|-------------|-------------|---13--13--13|---17--17--17|
B|---10--10--10|---13--13--13|-------------|-------------|
G|-------------|-------------|-10--10--10--|-14--14--14--|
D|-7---7---7---|-10--10--10--|-------------|-------------|
A|-------------|-------------|-------------|-------------|
E|-------------|-------------|-------------|-------------|

ELECTRIC GUITAR (WITH OVERDRIVE)

e|-------------------|-------------------|-------------------|
B|-------------------|-------------------|-------------------|
G|-------------------|-------------------|-------------------|
D|-10-10-10-10-10-10-|-11-11-11-11-11-11-|-10-10-10-10-10-10-|
A|-8--8--8--8--8--8--|-8--8--8--8--8--8--|-8--8--8--8--8--8--|
E|-------------------|-------------------|-------------------|

PM-----------------------------------------------------------

e|-------------------|-------------------|-------------------|
B|-------------------|-------------------|-------------------|
G|-------------------|-------------------|-------------------|
D|-11-11-11-11-11-11-|-10-10-10-10-10-10-|-11-11-11-11-11-11-|
A|-8--8--8--8--8--8--|-8--8--8--8--8--8--|-8--8--8--8--8--8--|
E|-------------------|-------------------|-------------------|

PM-----------------------------------------------------------

e|-------------------|-------------------|-------------------|
B|-------------------|-------------------|-------------------|
G|-------------------|-------------------|-------------------|
D|-10-10-10-10-10-10-|--------------X-X--|-------------------|
A|-8--8--8--8--8--8--|--------------X-X--|-8--8--8--8--------|
E|-------------------|-------------------|------------X\\\\0-|

PM<<<<<<<<<<<<<<<<<<<

e|------|------|------|--------|---------------|-----------------|-------|------|
B|------|------|------|--------|---------------|-----------------|-------|------|
G|------|------|------|--------|---------------|-----------------|-------|------|
D|------|------|------|--------|---------------|-----------------|-------|------|
A|------|------|------|------X-|---------------|-----------------|-------|------|
E|-6\\\\|\2////|/6\\\\|\2////--|-13-----11--13-|-HB13----13---11-|-13--X-|-HB13-|

e|------|------|------|--------|---------------|-----------------|-------|----------|
B|------|------|------|--------|---------------|-----------------|-------|----------|
G|------|------|------|--------|---------------|-----------------|-------|----------|
D|------|------|------|--------|---------------|-----------------|-------|----------|
A|-6\\\\|\2////|/6\\\\|\2////X-|-10---8--8--10-|-HB10--HB10-10-8-|-10----|-HB10//X-X|
E|------|------|------|--------|---------------|-----------------|-------|----------|

e|------|------|------|--------|---------------|-----------------|-------|---------|
B|------|------|------|--------|---------------|-----------------|-------|---------|
G|------|------|------|--------|---------------|-----------------|-------|---------|
D|------|------|------|--------|---------------|-----------------|-------|---------|
A|------|------|------|--------|-15--13--13-15-|-HB15----15-15-13|-15----|-15///X-X|
E|-4\\\\|\0----|-4\\\\|\0------|---------------|-----------------|-------|---------|

e|------|------|------|--------|---------------|-----------------|-------|-------------------|
B|------|------|------|--------|---------------|-----------------|-------|-------------------|
G|------|------|------|--------|---------------|-----------------|-------|-------------------|
D|------|------|------|--------|-13--11--11-13-|-HB13----13-13-11|-13-13X|-141314131413141314|
A|------|------|------|--------|---------------|-----------------|------X|-------------------|
E|-4\\\\|\0----|-4\\\\|\0------|---------------|-----------------|------X|-------------------|

e|------|------|------|--------|---------------|-----------------|-------|----------|
B|------|------|------|--------|---------------|-----------------|-------|----------|
G|------|------|------|--------|---------------|-----------------|-------|----------|
D|------|------|------|--------|-15--13--13-15-|-HB15----15-15-13|-15-15X|-16~~X\\--|
A|-4\\\\|\0----|-4\\\\|\0------|---------------|-----------------|------X|----------|
E|------|------|------|--------|---------------|-----------------|------X|--------X-|

e|----------|----------|----------|----------|-------------|--------------|-------|------------------|
B|----------|----------|----------|----------|-------------|--------------|-------|------------------|
G|----------|----------|----------|----------|-15--13-13-15|HB15HB15-15-13|-15--15|HB15HB15HB15//X---|
D|----------|----------|----------|----------|-------------|--------------|-------|---------------X--|
A|----------|-5--5--5\\|----------|-5--5--5//|-------------|--------------|-------|---------------X--|
E|-2---2//4-|----------|\2---2//4-|----------|-------------|--------------|-------|---------------X-0|

e|-------|-------|-------------|---------------|--------------|-------------|
B|-------|-------|-16-14-14-16-|-HB16--16-16-14|-16--14-14-16-|-HB16---16---|
G|-------|-------|-------------|---------------|--------------|-------------|
D|-------|-------|-------------|---------------|--------------|-------------|
A|-2-----|-2-----|-------------|---------------|--------------|-------------|
E|-----3-|-----3-|-------------|---------------|--------------|-------------|

e|-14-12-12-14-|-HB14-14-14-12-|-14--12-12--14-|-HB14----14---|
B|-------------|---------------|---------------|--------------|
G|-------------|---------------|---------------|--------------|
D|-------------|---------------|---------------|--------------|
A|-------------|---------------|---------------|--------------|
E|-------------|---------------|---------------|--------------|

e|-19--19-19-19|-19---------22-|-HB22-HB22-HB22|-HB21---------|
B|-------------|---------------|---------------|--------------|
G|-------------|---------------|---------------|--------------|
D|-------------|---------------|---------------|--------------|
A|-------------|---------------|---------------|--------------|
E|-------------|---------------|---------------|--------------|

e|--------|------|------|------|------|------|-0-----|
B|-HB18---|-19---|-19---|-19---|-19---|-19---|-1-----|
G|--------|------|------|------|------|------|-0-----|
D|--------|------|------|------|------|------|-2-----|
A|--------|------|------|------|------|------|-2-----|
E|--------|------|------|------|------|------|-------|


-------------------------------------------------------------------------------
			     STARLIGHT - Muse
-------------------------------------------------------------------------------

Verse 1
(piano)
Starts on bar 5 repeats twice
then on bar 28 (twice through)

Part 1
e--11----11-12----12-11--11---11-12----12-11----|
B----12-------14-------14--12------12--------14-|
G------11-------13-----------13------13---------|
D-----------------------------------------------|
A-----------------------------------------------|
E-----------------------------------------------|

after second piano part

Part 2
e--7---7---7---7---7---7--7---7----7---7---7----|
B----7---7---5---5---5--4---4---4/5--5---5------|
G-----------------------------------------------|
D-----------------------------------------------|
A-----------------------------------------------|
E-----------------------------------------------|

pre chorus
e-----------------------------------------------|
B-----------------------------------------------|
G--6-6-66x----------8-8-88x---------------------|
D--6-6-66x-4-4-4-44-8-8-88x-6-6-6-66-7-7-77x----|
A--4-4-44x-4-4-4-44-6-6-66x-6-6-6-66-7-7-77x----|
E----------2-2-2-22---------4-4-4-44-5-5-55x----|

e-----------------------------------------------|
B-----------------------------------------------|
G-------------------8-8-8-88--------------------|
D--2-2-2-22-7-7-77x-8-8-8-88--------------------|
A--2-2-2-22-7-7-77x-6-6-6-66--------------------|
E--0-0-0-00-5-5-55x-----------------------------|

Chorus

e--7-------7-------6-----6----7----7------------|
B----9---9---9---9---9-----8----9----9----------|
G------8-------8-------8-----8----9----9--------|
D-----------------------------------------------|
A-----------------------------------------------|
E-----------------------------------------------|

e------7----------------------------------------|
B----7---7---5---5------------------------------|
G--11------9---9--------------------------------| repeat 3 times
D-----------------------------------------------|
A-----------------------------------------------|
E-----------------------------------------------|

e--7-------7-------6-----6----7----7----9----9-----|
B----9---9---9---9---9-----8----9----9---11---11---|
G------8-------8-------8-----8----9----9---11---11-|
D--------------------------------------------------|
A--------------------------------------------------|
E--------------------------------------------------|

e-----------------------------------------------|
B------------------(bend this note slowly to 8)-|
G-----------------6-6-6-6-6-6-8-----------------|
D-----------------------------------------------|
A--7-7-7-7-7-7-7-7------------------------------|
E-----------------------------------------------|

pre chorus

e-----------------------------------------------|
B-------------------8-8-88x---------------------|
G--6-6-66x----------8-8-88x---------------------|
D--6-6-66x-4-4-4-44-8-8-88x-9-6------7-7-77x----|
A--4-4-44x-4-4-4-44-6-6-66x-----6--6-7-7-77x----|
E----------2-2-2-22------------------5-5-55x----|


e-----------------------------------------------|
B-------------------8-8-8-88--------------------|
G-------------------8-8-8-88--------------------|
D--2-2-2-22-7-7-77x-8-8-8-88--------------------|
A--2-2-2-22-7-7-77x-6-6-6-66--------------------|
E--0-0-0-00-5-5-55x-----------------------------|

Chorus

e-------------------------------------------|
B--4-4-4-4-8-8-8-8-9-9-9-9------------------|
G--4-4-4-4-8-8-8-8-9-9-9-9-8-8-8-8----------| repeat x 2
D--6-6-6-6-8-8-8-8-9-9-9-9-9-9-9-9----------|
A--6-6-6-6-6-6-6-6-7-7-7-7-9-9-9-9----------|
E--4-4-4-4-----------------7-7-7-7----------|

e---------------------------------------------|
B--44444444-88888888-99999999-----------------|
G--44444444-88888888-99999999-88888888--------|
D--66666666-88888888-99999999-99999999--------|
A--66666666-66666666-77777777-99999999--------|
E--44444444-66666666-77777777-77777777--------|

e----------------------------------------------|
B--44444444-88888888-99999999------------------|
G--44444444-88888888-99999999-1111111111111111-|
D--66666666-88888888-99999999-1111111111111111-|
A--66666666-66666666-77777777-9-9-9-9-9-9-9-9--|
E--44444444-66666666-77777777------------------|
.
-------------------------------------------------------------------------------
			     SUPERMASSIVE BLACK HOLE - Muse
-------------------------------------------------------------------------------

Tuning: Standard

Intro
E|----------------------------|
B|----------------------------|
G|----------------------------|
D|----------------------------| x3
A|----10b----------10b--------|
E|-0------0--0-0-0-----0--0-0-|

E|--------------------------------------|
B|--------------------------------------|
G|------------------------2(4)2-0h2p0---|
D|------------------------------------2-|
A|----10b----------10b------------------|
E|-0------0--0-0-0-----0----------------|

Main Riff/Verse 1
E|---------------------------------------------------------------------|
B|---------------------------------------------------------------------|
G|---------------------------------------------------------------------|
D|---------------------------------------------------------------------|
A|----10b--------------10b-----7-7-5----10b--------------10b-----7-7-8-|
E|-0------0-0-3-3-3-0------0-0-5-5-3-0------0-0-3-3-3-0------0-0-5-5-6-|

E|-------------------------------------------------------------|
B|-------------------------------------------------------------|
G|-------------------------------------------------------------|
D|-------------------------------------------------------------|
A|----10b--------------10b-----7-7-5----10b--------------10b---|
E|-0------0-0-3-3-3-0------0-0-5-5-3-0------0-0-3-3-3-0------0-|

E|---------------|
B|---------------|
G|-2(4)2-0h2p0---|
D|-------------2-|
A|---------------|
E|---------------|

Pre-Chorus
E|-----------------------------------------------------------------|
B|-----------------------------------------------------------------|
G|-----------------------------------------------------------------|
D|-----7-----7-7-------5---------------9-----8-7-5-----------------|
A|-----------------------------------------------------------------|
E|-5-5---5-5-----4-3-3---3-3-5-5-6-7-7---7-7-------0-0-0-2-2-3-3-4-|

E|-----------------------------------------------------------------|
B|-----------------------------------------------------------------|
G|-----------------------------------------------------------------|
D|-----7-----7-7-------5---------------9-----8-7-5-----------------|
A|---------------------------------------------------2---4---5---6-|
E|-5-5---5-5-----4-3-3---3-3-5-5-6-7-7---7-7---------0---2---3---4-|

Chorus
E|-----------------------------------------------------------------|
B|-----------------------------------------------------------------|
G|-----------------------------------------------------------------|
D|-----7-----7-7-------5---------------9-----8-7-5-----------------|
A|-----------------------------------------------------------------|
E|-5-5---5-5-----4-3-3---3-3-5-5-6-7-7---7-7-------0-0-0-2-2-3-3-4-|

E|-----------------------------------------------------------------|
B|-----------------------------------------------------------------|
G|-----------------------------------------------------------------|
D|-----7-----7-7-6-----5---------------9-----8-7-5-----------------|
A|-----------------------------------------------------------------|
E|-5-5---5-5-------3-3---3-3-5-5-6-7-7---7-7---------7-7-6-5-5-3-2-|

Verse 2
E|---------------------------------------|
B|---------------------------------------|
G|---------------------------------------|
D|---------------------------------------|
A|---------------------------------------|
E|-0~------------------0~----------------|

E|--------------------------------------------------------------------|
B|--------------------------------------------------------------------|
G|--------------------------------------------------------------------|
D|--------------------------------------------------------------------|
A|----10b--------------10b-----7-7-5----10b--------------10b----------|
E|-0------0-0-3-3-3-0------0-0-5-5-3-0------0-0-3-3-3-0------0~-------|

Pre-Chorus
Chorus

Interlude

E|----------------------------|
B|----------------------------|
G|----------------------------|
D|----------------------------| x3
A|----10b----------10b--------|
E|-0------0--0-0-0-----0--0-0-|

E|----------------------------|
B|----------------------------|
G|----------------------------|
D|----------------------------|
A|----10b----------10b--------|
E|-0------0--0-0-0-----0~-----|

Solo (Played Over Main Riff)
E|-------------------------------------------------------|
B|-------------10bu-----10h12p10h12p10h12p10h12p10bu~----|
G|-/4---/14\12-------x-----------------------------------|
D|-------------------x-----------------------------------|
A|-------------------------------------------------------|
E|-------------------------------------------------------|

E|--------------------------|
B|-12bu-/10---15-------(18)-|
G|------------17bu(19)------|
D|--------------------------|
A|--------------------------|
E|--------------------------|

Pre-Chorus
E|-----------------------------------------------------------------|
B|-----------------------------------------------------------------|
G|-----------------------------------------------------------------|
D|-----7-----7-7-------5---------------9-----8-7-5-----------------|
A|-----------------------------------------------------------------|
E|-5-5---5-5-----4-3-3---3-3-5-5-6-7-7---7-7-------0-0-0-2-2-3-3-4-|

E|-----------------------------------------------------------------|
B|-----------------------------------------------------------------|
G|-----------------------------------------------------------------|
D|-----7-----7-7-------5---------------9-----8-7-5-----------------|
A|---------------------------------------------------2---4---5---6-|
E|-5-5---5-5-----4-3-3---3-3-5-5-6-7-7---7-7---------0---2---3---4-|

Chorus
E|-----------------------------------------------------------------|
B|-----------------------------------------------------------------|
G|-----------------------------------------------------------------|
D|-----7-----7-7-------5---------------9-----8-7-5-----------------|
A|-----------------------------------------------------------------|
E|-5-5---5-5-----4-3-3---3-3-5-5-6-7-7---7-7-------0-0-0-2-2-3-3-4-|

E|-----------------------------------------------------------------|
B|-----------------------------------------------------------------|
G|-----------------------------------------------------------------|
D|-----7-----7-7-6-----5---------------9-----8-7-5-----------------|
A|-----------------------------------------------------------------|
E|-5-5---5-5-------3-3---3-3-5-5-6-7-7---7-7---------7-7-6-5-5-3-2-|

Outro
Interlude
   ‘Supermassive Black Hole'
E|----------------------------|
B|----------------------------|
G|----------------------------|
D|----------------------------| x3
A|----10b----------10b--------|
E|-0------0--0-0-0-----0--0-0-|

E|----------------------------|
B|----------------------------|
G|----------------------------|
D|----------------------------| (* represents harmonic. Best played on
A|----10b----------10b----x*--|    the third frets)
E|-0------0--0-0-0-----0--x*--|

-------------------------------------------------------------------------------
			     MAP OF THE PROBLEMATIQUE - Muse
-------------------------------------------------------------------------------

Tuning: eBGDAC (Drop C)
.
Intro 1
e:-----------------------------------------|
B:-----------------------------------------|
G:-----------------------------------------|
D:-----------------------------------------|
A:--15-15----15-15------15-15-----15-15----|
C:-0---------0-----------0-----------0-----|

Intro 2
e:----------------------------------|
B:----------------------------------|
G:----------------------------------|
D:----------------------------------|
A:-15-15---13-13---18-18---15-15----|
C:-0-0---15-15---20-20---17-17------|

This is the riff played over the second intro above that you may recognize:
e:----------------------------------------------------------------|
B:----------------------------------------------------------------|
G:-5-5-5-5-5-5-5-5-5-5-5-5/7-7-7/8-8-8-8-8-8-8-8-8-8-8-8-8-8------|e.t.c.

e:---------------------------------------------------------------|
B:---------------------------------------------------------------|
G:-8-8-8-8-8--7-5-7-7-7-7-7--5-3-5-5-5-5-5--3-1-1-1-1-1-1--0-----| < x2

e:-0----x----x----x--|
B:-1----3----x----x--|
G:-0----3----x----x--|
D:-1----3----6----3--|
A:-3----1----6----3--|
C:-0----x----8----5--|
  Cm    Bb   G#   Fm

-------------------------------------------------------------------------------
			     SOLDIERS POEM - Muse
-------------------------------------------------------------------------------

Capo at the second fret

--------0---------|
------1---1-------|
----0-------------|
------------------|     x4
--3---------------|
------------------|

  Throw it all....                                ...away, let's lose...

--------0-----------0------------1----------1----------1-----------1-----|
------1---1-------1---1--------0---0------0---0------1---1--------1--1---|
----0------0----0-------0----0-------0--0------0---1-------1----1-----1--|
-------------------------------------------------------------------------|
--3----------3-----------------------------------------------------------|
--------------------------3-----------3----------1------------1----------|


...ourselves

---------0------------0--------|
-------1---1--------0---0------|
-----0-------0----1------------|
-------------------------------|
---3---------------------------|
----------------0--------------|


...Cause there's no one  left   for   us   to

--------0----------0---------1-----------1--------------|
------1---1------1---1-----3---3-------3---3------------|
----2----------2---------2-------2---2-------2----------|
-----------------------0-----------0--------------------|
--0----------0------------------------------------------|
--------------------------------------------------------|

...Blame, it's a shame       we're all dying

--------1------------3------------1-----------1-----------|
------3---3--------2---2--------1---1-------1---1---------|
----2-------2----2-------2----2-------2---2-------2-------|
--0-------------------------------------------------------|
---------------0------------------------------------------|
----------------------------1-----------1-----------------|

...And do yo think you deserve your freedom?

---------3-----------3------------3-----------3-----------|
-------3---3-------3---3--------3---3-------3---3---------|
-----4-------4---4------4-----4-------4---4-------4-------|
----------------------------------------------------------|
----------------------------------------------------------|
---3-----------3------------3-----------3-----------------|

The second verse it's played the same way:

How could you send us all far away from home
When you know damn well that this is all
I would still lay down my life for you
And do you think you deserve your freedom


Then the las part of the song:


...No          ..I   don't      think you

----------0-----------0-----------0-----------0--------|
--------1---1-------1---1-------3---3-------3---3------|
------0-------0---2-------2---0-------0---0-------0----|
-------------------------------------------------------|
----3-----------0--------------------------------------|
----------------------------3-----------3--------------|


...do                        ...There's no justice

--------0-----------0------------1----------1-------|
------1---1-------1---1--------1---1------1---1-----|
----2-------2---2-------2----2------2---2-------2---|
----------------------------------------------------|
--0-----------0-------------------------------------|
---------------------------1----------1-------------|

...in                       the         world

--------1-----------1------------0-----------0-------|
------1---1-------1---1--------1---1-------1---1-----|
----2-------2---1-------1----0-------0---0-------0---|
-----------------------------------------------------|
---------------------------3-----------3-------------|
--1-----------1--------------------------------------|


...There's no justice in the world


--------1-----------1-----------3----------3----------|
------1---1-------1---1-------3---3------3---3--------|
----2-------2---2-------2---4------4---4-------4------|
------------------------------------------------------|
------------------------------------------------------|
--1-----------1-----------3----------3----------------|

...And there never was


----------0-----------                      --3--|
--------1---1---------                      --1--|
------0-------0-------             x4       --0--|
----------------------                      --2--|
----3-----------------                      --3--|
----------------------                      -----|

-------------------------------------------------------------------------------
			    INVINCIBLE - Muse
-------------------------------------------------------------------------------

Tuning: Standard

Intro-Starts with echoed/reverb effects, then this comes in-
E|----------------------------------------------------------------------|
B|-17\8-8-8/17\8-8-8/18\10-10-10/18\10-10-10/18\12-12-12/18\12/13/15/17-|
G|----------------------------------------------------------------------|
D|----------------------------------------------------------------------|
A|----------------------------------------------------------------------|
E|----------------------------------------------------------------------|

Verse-Bass (Guitar Plays nothing)
G|---------------------------------------------------------|
D|-----------------------------33333--33333--33333--33333--|
A|-33333--33333--33333--33333------------------------------|
E|---------------------------------------------------------|

G|---------------------------------------------------------|
D|--------------55555--55555-----------------77777--77777--|
A|-55555--55555----------------77777--77777----------------|
E|---------------------------------------------------------|

G|---------------------------------------------------------|
D|---------------55555--55555------------------------------|
A|-88888--88888----------------33333--33333--33333--33333--|
E|---------------------------------------------------------|

G|---------------------------------------------------------|
D|----------------------00002--33333--33333--33333--33332--|
A|-33333--33333--33333-------------------------------------|
E|---------------------------------------------------------|

G|---------------------------------------------------------|
D|---------------55555--5555--------------6--77777--77775--|
A|-55555--55558-------------8--77777--7777-----------------|
E|---------------------------------------------------------|

G|---------------------------------------------------------|
D|---------------------------------------------------------|
A|-88888--88885/----------------33333--33333--33333--33333-|
E|----------------33333--33333-----------------------------|

Chorus (clean)
E|--8~----10~----8~-----8~----13~----10~----12~----12~----13~----15~----|
B|-10~----12~----8~----10~----15~----12~----12~----13~----13~----15~----|
G|-10~----12~----9~----10~----14~----12~----13~----14~----14~----16~----|
D|--------------10~-----------12~---------------------------------------|
A|----------------------------------------------------------------------|
E|----------------------------------------------------------------------|

Bridge
E|-(8)----------------------------------------------------------------------|
B|-(8)-17\8-8-8/17\8-8-8/18\10-10-10/18\10-10-10/18\12-12-12/18\12/13/15/17-|
G|-(9)----------------------------------------------------------------------|
D|(10)----------------------------------------------------------------------|
A|--------------------------------------------------------------------------|
E|--------------------------------------------------------------------------|

Verse 2
E|----------|   |----------|   |------1---|   |----------|   |------0---|
B|------1---|   |------1---|   |---3-3-3--|   |------3---|   |---0-0-0--|
G|---0-0-0--|x4 |---2-2-2--|x4 |--2-2---2-|x2 |---0-0-0--|x2 |--1-1---1-|x2
D|--2-2---2-|   |--3-3---3-|   |-0--------|   |--0-0---0-|   |-2--------|
A|-3--------|   |-3--------|   |----------|   |-2--------|   |----------|
E|----------|   |----------|   |----------|   |----------|   |----------|

E|------0---|   |----------|   |----------|
B|---1-1-1--|   |------1---|   |------3---|
G|--2-2---2-|x2 |---2-2-2--|x2 |---0-0-0--|x2
D|-2--------|   |--3-3---3-|   |--0-0---0-|
A|----------|   |-3--------|   |-2--------|
E|----------|   |----------|   |----------|

Pre Chorus
E|----------|
B|------1---|
G|---0-0-0--|x4
D|--2-2---2-|
A|-3--------|
E|----------|

Chorus
E|-----------8-----|   |-----------10-----|   |-------8---|
B|-----10--10-10---|   |-----12--12--12---|   |----8-8-8--|
G|---10--10-----10-|x2 |---12--12------12-|x2 |---9-9---9-|x2
D|-10--------------|   |-12---------------|   |-10--------|
A|-----------------|   |------------------|   |-----------|
E|-----------------|   |------------------|   |-----------|

E|-----------8-----|   |-----------13-----|   |-----------15-----|
B|-----10--10-10---|   |-----15--15--15---|   |-----15--15--15---|
G|---10--10-----10-|x2 |---14--14------14-|x2 |---16--16------16-|x2
D|-10--------------|   |-12---------------|   |-17---------------|
A|-----------------|   |------------------|   |------------------|
E|-----------------|   |------------------|   |------------------|

E|-----------12-----|   |-----------12-----|   |-----------13-----|
B|-----12--12--12---|   |-----13--13--13---|   |-----13--13--13---|
G|---13--13------13-|x2 |---14--14------14-|x2 |---14--14------14-|x2
D|-14---------------|   |-14---------------|   |-15---------------|
A|------------------|   |------------------|   |------------------|
E|------------------|   |------------------|   |------------------|

E|-----------15-----|   |--8~--|
B|-----15--15--15---|   |--8~--|
G|---16--16------16-|x2 |--9~--|
D|-17---------------|   |-10~--|
A|------------------|   |------|
E|------------------|   |------|

Interlude
Bass Riff
G|-------5-----3-----------------3-------------------------------------|
D|-2-----------------6-----5---------6-----5-----3-----6-----5---3-----|
A|---3-3---3-3---3-3---3-3---3-3---3---3-3---3-3---3-3---3-3---3---3---|
E|---------------------------------------------------------------------|

Guitar
E|---------------------------------------------------------------------|
B|-x-x-x-x-x-x-x-x-x-x-x-x-x-x-x-x-x-x-x-x-x-x-x-x-x-x-x-x-x-x-x-x-x-x-|
G|-x-x-x-x-x-x-x-x-x-x-x-x-x-x-x-x-x-x-x-x-x-x-x-x-x-x-x-x-x-x-x-x-x-x-|
D|-x-x-x-x-x-x-x-x-x-x-x-x-x-x-x-x-x-x-x-x-x-x-x-x-x-x-x-x-x-x-x-x-x-x-|
A|---------------------------------------------------------------------|
E|---------------------------------------------------------------------|

E|-----------------------------------------------------------|
B|-----------------------------------------------------------|
G|-5-----5-----5-----5---5-5-5-----5-----5-----5-----5---5-5-|
D|-----------------------------------------------------------|
A|---3-3---3-3---3-3---3-------3-3---3-3---3-3---3-3---3-----|
E|-----------------------------------------------------------|

E|-----------------------------------------------------------|
B|-----------------------------------------------------------|
G|-5-----5-----5-----5---5-5-5-----5-----5-----5---5//////16-|
D|-----------------------------------------------------------|
A|---3-3---3-3---3-3---3-------3-3---3-3---3-3---3-----------|
E|-----------------------------------------------------------|

Solo-The * shows the notes which are hammered with the right hand
    *              *              *              *
E|-h15p-3p1p0h1p0-h13p-3p1p0h1p0-h12p-3p1p0h1p0-h13p-0h3p0-h15p-0h5p0-|
B|--------------------------------------------------------------------|
G|--------------------------------------------------------------------|
D|--------------------------------------------------------------------|
A|--------------------------------------------------------------------|
E|--------------------------------------------------------------------|
    *              *              *              *          *
E|-h17p-5p3p0h3p0-h15p-5p3p0h3p0-h13p-5p3p0h3p0-h15p-0h5p0-h17p-0h5p0-|
B|--------------------------------------------------------------------|
G|--------------------------------------------------------------------|
D|--------------------------------------------------------------------|
A|--------------------------------------------------------------------|
E|--------------------------------------------------------------------|
    *               *         *          *              *          *
E|-h17p-5p3p0h3p0-h15p-0h3p0-h17p-0h3p0-h19p-7p5p0h1p0-h17p-0p5h0-h19p-|
B|---------------------------------------------------------------------|
G|---------------------------------------------------------------------|
D|---------------------------------------------------------------------|
A|---------------------------------------------------------------------|
E|---------------------------------------------------------------------|
          *              *          *          *              *
E|-0h5p0-h19p-7p5p0h1p0-h17p-0p5h0-h19p-0h5p0-h20p-8p7p0h7p0-h19p-0h7p0-|
B|----------------------------------------------------------------------|
G|----------------------------------------------------------------------|
D|----------------------------------------------------------------------|
A|----------------------------------------------------------------------|
E|----------------------------------------------------------------------|
    *          *              *          *          *
E|-h20p-0h7p0-h20p-8p7p0h7p0-h19p-0h7p0-h20p-0h7p0-h22p-3p1p0h1p0-10^bu-|
B|----------------------------------------------------------------------|
G|----------------------------------------------------------------------|
D|----------------------------------------------------------------------|
A|----------------------------------------------------------------------|
E|----------------------------------------------------------------------|

E|-10^^bu~~~~~~(effects come in)---------------------------------|
B|---------------------------------------------------------------|
G|---------------------------------------------------------------|
D|---------------------------------------------------------------|
A|---------------------------------------------------------------|
E|---------------------------------------------------------------|

Chorus (Overdrive)
E|--8~----10~----8~-----8~----13~----10~----12~----12~----13~----15~----|
B|-10~----12~----8~----10~----15~----12~----12~----13~----13~----15~----|
G|-10~----12~----9~----10~----14~----12~----13~----14~----14~----16~----|
D|--------------10~-----------12~---------------------------------------|
A|----------------------------------------------------------------------|
E|----------------------------------------------------------------------|

Outro
E|------------------------------------------|
B|------------------------------------------|
G|-5555~5555~5555~5555~5555~5555~5555~5555/-|
D|-xxxx-xxxx-xxxx-xxxx-xxxx-xxxx-xxxx-xxxx--|
A|-3333~3333~3333~3333~3333~3333~3333~3333/-|
E|------------------------------------------|


-------------------------------------------------------------------------------
			     ASSASSIN - Muse
-------------------------------------------------------------------------------

Intro(part 1)x2
clean
e------------------------------------------------------|
B-3-3-2-2-3-3-2-2-3-3-2-2-3-3-2-2-3-3-2-2-3-3-2-2------|
G-3-3-2-2-3-3-2-2-3-3-2-2-3-3-2-2-3-3-2-2-3-3-2-2------|
D------------------------------------------------------|
A------------------------------------------------------|
D------------------------------------------------------|

e------------------------------------------------------|
B-4-4-3-3-4-4-3-3-4-4-3-3-4-4-3-3-4-4-3-3-4-4-3-3------|
G-3-3-0-0-3-3-0-0-3-3-0-0-3-3-0-0-3-3-0-0-3-3-0-0------|
D------------------------------------------------------|
A------------------------------------------------------|
D------------------------------------------------------|

Intro(part 2)x2
 pm. . . . . . . . . . . . . . . . . . . . . . . . . . . . . . . . . . . .
e---------------------------------------------------------------------------|
B---------------------------------------------------------------------------|
G---------------------------------------------------------------------------|
D---------------------------------------------------------------------------|
A---------------------------------------------------------------------------|
D-8-7-7-8-7-7-8-7-7-8-7-7-8-7-7-8-7-7-8-5-5-8-5-5-8-5-5-8-5-5-8-5-5-8-5-5---|
|
|guitar2
|    .  .  .  .  .      .  .  .  .  .   .  .  . . .     .  .  . . .(staccato)
e----------------------------------------------------------------------|
B---10-11-10-11-10-----10-11-10-11-10---8--8--8-8-8-----8--8--8-8-8----|
G----------------------------------------------------------------------|
D----------------------------------------------------------------------|
A----------------------------------------------------------------------|
D----------------------------------------------------------------------|

           Intro(part 3)x2
e---------|---------------------------------------------------------------------------------|
B---------|---------------------------------------------------------------------------------|
G--drum---|---------------------------------------------------------------------------------|
D--fill---|---------------------------------------------------------------------------------|
A---------|--------------------------------------------------------------------8-8-8--------|
D---------|--8-0-0-8-0-0-8-0-0-8-0-0-8-0-0-8-0-0-8-0-0-8-0-0-8-0-0-8-0-0-8-0-0-8-8-8--------|

Verse 1
riffx2
e-------------------------------------------------------------------------------------|
B-------------------------------------------------------------------------------------|
G-------------------------------------------------------------------------------------|
D-------------------------------------------------------------------------------------|
A--8p5-5-5-5-5-(x7)--8p7-7-7-7-7-(x6)--8h10-10-10-10-10-(x7)--10h12-12-12-12-12-(x5)--|
D-------------------------------------------------------------------------------------|


Chorus x2
e------------------------------------------------------------------------------|
B------------------------------------------------------------------------------|
G------------------------------------------------------------------------------|
D------------------------------------------------------------------------------|
A------------------------------------------------------------------------------|
D-7p3-3-3-3-3-(x9)--9h10-10-10-10-10-(x3)--8p5-5-5-5-5-(x9)--8p0-0-0-0-0-(x3)--|


Link(part 1)x1.5
 pm. . . . . . . . . . . . . . . . . . . . . . . . . . . . . . . . . . . .
e---------------------------------------------------------------------------|
B---------------------------------------------------------------------------|
G---------------------------------------------------------------------------|
D---------------------------------------------------------------------------|
A---------------------------------------------------------------------------|
D-8-7-7-8-7-7-8-7-7-8-7-7-8-7-7-8-7-7-8-5-5-8-5-5-8-5-5-8-5-5-8-5-5-8-5-5---|
|
|guitar2
|    .  .  .  .  .      .  .  .  .  .   .  .  . . .     .  .  . . .(staccato)
e----------------------------------------------------------------------|
B---10-11-10-11-10-----10-11-10-11-10---8--8--8-8-8-----8--8--8-8-8----|
G----------------------------------------------------------------------|
D----------------------------------------------------------------------|
A----------------------------------------------------------------------|
D----------------------------------------------------------------------|

           Link(part 2)x2
e---------|---------------------------------------------------------------------------------|
B---------|---------------------------------------------------------------------------------|
G--drum---|---------------------------------------------------------------------------------|
D--fill---|---------------------------------------------------------------------------------|
A---------|--------------------------------------------------------------------8-8-8--------|
D---------|--8-0-0-8-0-0-8-0-0-8-0-0-8-0-0-8-0-0-8-0-0-8-0-0-8-0-0-8-0-0-8-0-0-8-8-8--------|

Verse 2
e-------------------------------------------------------------------------------------|
B-------------------------------------------------------------------------------------|
G-------------------------------------------------------------------------------------|
D-------------------------------------------------------------------------------------|
A--8p5-5-5-5-5-(x7)--8p7-7-7-7-7-(x6)--8h10-10-10-10-10-(x7)--10h12-12-12-12-12-(x5)--|
D-------------------------------------------------------------------------------------|

Chorus x2
e------------------------------------------------------------------------------|
B------------------------------------------------------------------------------|
G------------------------------------------------------------------------------|
D------------------------------------------------------------------------------|
A------------------------------------------------------------------------------|
D-7p3-3-3-3-3-(x9)--9h10-10-10-10-10-(x3)--8p5-5-5-5-5-(x9)--8p0-0-0-0-0-(x3)--|

Link

     .  .  .  .  .   (staccato)
e--------------------|
B---10-11-10-11-10---|
G--------------------|
D--------------------|
A--------------------|
D--------------------|

Outro
Link(part 1)x2
 pm. . . . . . . . . . . . . . . . . . . . . . . . . . . . . . . . . . . .
e---------------------------------------------------------------------------|
B---------------------------------------------------------------------------|
G---------------------------------------------------------------------------|
D---------------------------------------------------------------------------|
A---------------------------------------------------------------------------|
D-8-7-7-8-7-7-8-7-7-8-7-7-8-7-7-8-7-7-8-5-5-8-5-5-8-5-5-8-5-5-8-5-5-8-5-5---|
|
|guitar2
|    .  .  .  .  .      .  .  .  .  .   .  .  . . .     .  .  . . .(staccato)
e----------------------------------------------------------------------|
B---10-11-10-11-10-----10-11-10-11-10---8--8--8-8-8-----8--8--8-8-8----|
G----------------------------------------------------------------------|
D----------------------------------------------------------------------|
A----------------------------------------------------------------------|
D----------------------------------------------------------------------|

heavy pm . . . . . . . . . . . . .
e--------------------------------------|
B--------------------------------------|
G--------------------------------------|
D----------------------------------0---|
A----------------------------------0---|
D--8-7-0-7-6-0-5-6-0-5-4-0-4-3-2-1-0---|

-------------------------------------------------------------------------------
			     EXO POLITICS - Muse
-------------------------------------------------------------------------------

Standard Tuning


Intro and Verse 1 "Open skies over me..."
-------------------------------|
-------------------------------|
-------------------------------|
-------------------------------|  X4
-5-5-5-3-5-7-8-8-7s8s7---------|
------------------------8------|

-----------------------------------------------|
-----------------------------------------------|
-----------------------------------------------|
-----------------------------------------------|
---------------------------------------5-3s5s3-|
--6-6-6-5-6-8-1-1-1-0-1-3-5-5-5-3-5-8----------|


----------------------------------------------------|
----------------------------------------------------|
----------------------------------------------------|
----------------------------------------------------|
----------------------------------------------------|
--6-6-6-5-6-8-1-1-1-0-1-3-5-5-5-3-5-8-5-5-5-(3-1-0)-|

-------------------------------|
-------------------------------|
-------------------------------|
-------------------------------|
-5-5-5-3-5-7-8-8-7s8s7---------|
------------------------8------|

-----------------------------------------------|
-----------------------------------------------|
-----------------------------------------------|
-----------------------------------------------|
---------------------------------------5-3s5s3-|
--6-6-6-5-6-8-1-1-1-0-1-3-5-5-5-3-5-8----------|


-----------------------------------------------------------------------|
-----------------------------------------------------------------------|
-----------------------------------------------------------------------|
-----------------------------------------------------------------------|
-----------------------------------------------------------------------| 5 slide down)
--6-6-6-5-6-8-1-1-1-0-1-3-5-5-5-3-5-8-5-5-5-(5-6-5-3-5-8---------------|

Chorus "When the zetas fill the skies.."
--------------------|
--------------------|
--7---5---10--15----|
--7---5---10--15----|
--5---3---8---13----|
--------------------|

-----------------------------|
-----------------------------|
-----------------------------|
-----------------------------|
--5---3---8---5-3-1-0-1-3-5--|
-----------------------------|

--------------------|
--------------------|
--7---5---10--15----|
--7---5---10--15----|
--5---3---8---13----|
--------------------|

-----------------------------|
-----------------------------|
-----------------------------|
-----------------------------|
--5---3---8---5-3-1-0-1-3-5--|
-----------------------------|

"And I've waited patiently"
-----------------------------------------------|
-----------------------------------------------|
-----------------------------------------------|
-----------------------------------------------|
---------------------------------------5-3s5s3-|
--6-6-6-5-6-8-1-1-1-0-1-3-5-5-5-3-5-8----------|


----------------------------------------------------|
----------------------------------------------------|
----------------------------------------------------|
----------------------------------------------------|
----------------------------------------------------|
--6-6-6-5-6-8-1-1-1-0-1-3-5-5-5-3-5-8-5-5-5-(3-1-0)-|

Solo

--------------------------------------|
--------------------------------------|
-14-12--------------------------------|
-------15-14-15--------15-14----------|
----------------15-12--------15-12-12-|
--------------------------------------|

-----------------------------------------------|
-----------------------------------------------|
-14-12-----------------------------------------|
-------15-14-15----------15-14-----------------|
----------------15--12---------15-12-10--12-13-|
-----------------------------------------------|

------------------------------------|
------------13----------------------|
--15-14-15------15-14---------------|
-----------------------15-14-11-11--|
------------------------------------|
------------------------------------|

----------------------------------------------------|
----------------------------------------------------|
-----14-12-14-15------------------------------------|
-------------------14-11---15h17h--15h17h--14-15----|
----------------------------------------------------|
----------------------------------------------------|


------------------------------------|
------------13----------------------|
--15-14-15------15-14---------------|
-----------------------15-14-11-11--|
------------------------------------|
------------------------------------|

----------------------------------|
----------------------------------|
--14------------------------------|
------14-14-17-17-15-15-14-14-----|
----------------------------------|
----------------------------------|

Verse 2 "Carried through the centuries..."
-------------------------------|
-------------------------------|
-------------------------------|
-------------------------------|  X4
-5-5-5-3-5-7-8-8-7s8s7---------|
------------------------8------|

Chorus "When the zetas fill the skies"
--------------------|
--------------------|
--7---5---10--15----|
--7---5---10--15----|
--5---3---8---13----|
--------------------|

-----------------------------|
-----------------------------|
-----------------------------|
-----------------------------|
--5---3---8---5-3-1-0-1-3-5--|
-----------------------------|

--------------------|
--------------------|
--7---5---10--15----|
--7---5---10--15----|
--5---3---8---13----|
--------------------|

-----------------------------|
-----------------------------|
-----------------------------|
-----------------------------|
--5---3---8---5-3-1-0-1-3-5--|
-----------------------------|

"I'm waiting patiently"
-----------------------------------------------|
-----------------------------------------------|
-----------------------------------------------|
-----------------------------------------------|
---------------------------------------5-3s5s3-|
--6-6-6-5-6-8-1-1-1-0-1-3-5-5-5-3-5-8----------|


----------------------------------------------------|
----------------------------------------------------|
----------------------------------------------------|
----------------------------------------------------|
----------------------------------------------------|
--6-6-6-5-6-8-1-1-1-0-1-3-5-5-5-3-5-8-5-5-5-(3-1-0)-|

Outro

Guitar 1
-------------------------------|
-------------------------------|
-------------------------------| X2
-------------------------------|
-5-5-5-3-5-7-8-8-7s8s7---------|
------------------------8------|

-------------------------------|
-------------------------------|
-------------------------------|
-3--5 (slide down guitar)------|
-------------------------------|
-------------------------------|

Guitar 2

--------- ----------------|
--------- ----------------|
---7----- ---5---7--------|
---7--x2- ---5---7--------|
---5----- ---3---5--------|
--------- ----------------|

----------------------------------------------------------------------------
			 CITY OF DELUSION - Muse
----------------------------------------------------------------------------

Tuning: EADGBE

Intro

E|--x-x-x-x-x-x-x-x--|
B|--x-x-x-x-x-x-x-x--|
G|--x-x-x-x-x-x-x-x--|
D|--x-x-x-x-x-x-x-x--|
A|-------------------|
E|-------------------|

E|--1-1-1-1--0-0-0-0-0-0-0-0-0--|
B|--3-3-3-3--2-2-2-2-2-2-2-2-2--|
G|--2-2-2-2--2-2-2-2-2-2-2-2-2--|  X 4
D|--0-0-0-0--0-0-0-0-0-0-0-0-0--|
A|------------------------------|
E|------------------------------|

Verse

E|--1-1-1-1--0-0-0-0-0-0-0-0-0--|
B|--3-3-3-3--2-2-2-2-2-2-2-2-2--|
G|--2-2-2-2--2-2-2-2-2-2-2-2-2--|  X 4
D|--0-0-0-0--0-0-0-0-0-0-0-0-0--|
A|------------------------------|
E|------------------------------|

E|--1-1-1-1--3-3-3-3-3-3-3-3-3--1-1-1-1--6-6-6-6-6-6-6-6-6--|
B|--3-3-3-3--2-2-2-2-2-2-2-2-2--3-3-3-3--8-8-8-8-8-8-8-8-8--|
G|--2-2-2-2--2-2-2-2-2-2-2-2-2--2-2-2-2--7-7-7-7-7-7-7-7-7--|
D|--0-0-0-0--0-0-0-0-0-0-0-0-0--0-0-0-0--0-0-0-0-0-0-0-0-0--|
A|----------------------------------------------------------|
E|----------------------------------------------------------|

E|--1-1-1-1--3-3-3-3-3-3-3-3-3--1-1-1-1--0-0-0-0-0-0-0-0-0--|
B|--3-3-3-3--2-2-2-2-2-2-2-2-2--3-3-
Добавлено: 27.07.2012
Другие материалы по этой песне:
  • Аккорды и текст

Страница создана 27.07.2012
http://primanota.ru/muse/black-holes-and-revaltions-album-chords.htm
Привет, Гость.
Предлагаем пройти революционный курс по гитаре.
Подарок от PrimaNota.Ru, забирай!