PrimaNota.ru - самый крупный в мире бесплатный архив песенных текстов, аккордов, табулатур и нот


Murphys Law - Beer - таба, видео

Регистрация Запомнить меня
Войти через:  Facebook Google Twitter Vk Yandex Mail.ru

Murphys Law - Beer - таба, видео

Печатать
Просмотров: 74
------------------------------------------------------------------------------------
                               Beer - Murphy's Law
------------------------------------------------------------------------------------

  This is my first tab and I learned this by ear so I Don't know if the intro solo, 
guitar fills and solo are 100% accurate.Feel free to post corrections in the comments 
but sounds pretty good to me.

  / - slide up
  \ - slide down
  h - hammer-on
  p - pull-off
  ~ - vibrato
  + - harmonic
  x - Mute note
  b - Bend
 pb - Pre-bend
 br - Bend release
pbr - Pre-bend release
brb - Bend release bend
  . - Palm Mute

Intro        let ring      

e|----------------------|
B|----------------------|
G|-----9----------------|
D|-----9----------------|
A|-----7----------------|
E|----------------------|

Intro Solo

e|--------------------------------------------------|
B|------------------------------------------7-9b----|
G|--------7h9-------7h9-------7h9-------7h9---------|
D|--7h8h9-----7h8h9-----7h8h9-----7h8h9-------------|
A|--------------------------------------------------|
E|--------------------------------------------------|


e|--------------------------------------------------|
B|------------------------------------------7-10b---|
G|--------7h9-------7h9-------7h9-------7h9---------|
D|--7h8h9-----7h8h9-----7h8h9-----7h8h9-------------|
A|--------------------------------------------------|
E|--------------------------------------------------|
                                           
                                      x3
e|------------------------------------|
B|------------------------------------|
G|--5-4-5-4--7--10-9--9-9-9-9-9-------|
D|--5-4-5-4--7--10-9--9-9-9-9-9-------|
A|--3-2-3-2--5--8--7--7-7-7-7-7-------|
E|------------------------------------|

Fill 1

e|----------------------|
B|--------------8~------|
G|--------7h8h9---------|
D|--7h8h9---------------|
A|----------------------|
E|----------------------|


e|-----------------------------------|
B|-----------------------------------|
G|--5-4-5-4--7--10-9--9-9-9-9-9------|
D|--5-4-5-4--7--10-9--9-9-9-9-9------|
A|--3-2-3-2--5--8--7--7-7-7-7-7------|
E|-----------------------------------|

Fill 2

e|--12---------------------|
B|--16b-15p12-15p12--------|
G|------------------14p12--|
D|-------------------------|
A|-------------------------|
E|-------------------------|

e|-----------------------------------|
B|-----------------------------------|
G|--5-4-5-4--7--10-9--9-9-9-9-9------|
D|--5-4-5-4--7--10-9--9-9-9-9-9------|
A|--3-2-3-2--5--8--7--7-7-7-7-7------|
E|-----------------------------------|

Fill 3
   . . . . . . . . . . . .
e|------------------------------|
B|------------------------------|
G|-------7h8h9-------7h8h9------|
D|-7h8h9-------7h8h9------------|
A|------------------------------|
E|------------------------------|

e|-----------------------------------|
B|-----------------------------------|
G|--5-4-5-4--7--10-9--9-9-9-9-9------|
D|--5-4-5-4--7--10-9--9-9-9-9-9------|
A|--3-2-3-2--5--8--7--7-7-7-7-7------|
E|-----------------------------------|

Fill 4

e|--17b-15-13--------------------|
B|-------------15p13-15p13--15---|
G|-------------------------------|
D|-------------------------------|
A|-------------------------------|
E|-------------------------------|

                         x4
e|----------------------|
B|----------------------|
G|--9-10-9--10-12-------|
D|--9-10-9--10-12-------|
A|--7-8--7--8--10-------|
E|----------------------|

                                      x2
e|-----------------------------------|
B|-----------------------------------|
G|--5-4-5-4--7--10-9--9-9-9-9-9------|
D|--5-4-5-4--7--10-9--9-9-9-9-9------|
A|--3-2-3-2--5--8--7--7-7-7-7-7------|
E|-----------------------------------|

Fill 1

e|----------------------|
B|--------------8~------|
G|--------7h8h9---------|
D|--7h8h9---------------|
A|----------------------|
E|----------------------|

e|-----------------------------------|
B|-----------------------------------|
G|--5-4-5-4--7--10-9--9-9-9-9-9------|
D|--5-4-5-4--7--10-9--9-9-9-9-9------|
A|--3-2-3-2--5--8--7--7-7-7-7-7------|
E|-----------------------------------|

Fill 2

e|--12---------------------|
B|--16b-15p12-15p12--------|
G|------------------14p12--|
D|-------------------------|
A|-------------------------|
E|-------------------------|

e|-----------------------------------|
B|-----------------------------------|
G|--5-4-5-4--7--10-9--9-9-9-9-9------|
D|--5-4-5-4--7--10-9--9-9-9-9-9------|
A|--3-2-3-2--5--8--7--7-7-7-7-7------|
E|-----------------------------------|

Fill 5

e|-------------------------|
B|--13-13--10--13-13-13----|
G|--12-12--9---12-12-12----|
D|-------------------------|
A|-------------------------|
E|-------------------------|

                         x4
e|----------------------|
B|----------------------|
G|--9-10-9--10-12-------|
D|--9-10-9--10-12-------|
A|--7-8--7--8--10-------|
E|----------------------|

       let ring      
                         x4
e|----------------------|
B|----------------------|
G|-----9----------------|
D|-----9----------------|
A|-----7----------------|
E|----------------------|

Solo                                                   Pick Slide

                                                       on G and D
e|---------------------------------------------------------------|
B|--5-5-5--5-6-8---5-5-5--5\6-10--8-10-8--10-10-11-10--8---------|
G|--4-4-4--4\5-7---4-4-4--4\5-9---7-9--7--9--9--10-9---7-////////|
D|-------------------------------------------------------////////|
A|---------------------------------------------------------------|
E|---------------------------------------------------------------|

                          x3
e|-----------------------|
B|--8-10-8--10-10-11-10--|
G|--7-9--7--9--9--10-9---|
D|-----------------------|
A|-----------------------|
E|-----------------------|


e|-----------------------|
B|--8-8-9-9-10-10-11-11--|
G|--7-7-8-8-9--9--10-10--|
D|-----------------------|
A|-----------------------|
E|-----------------------|

                                      x2
e|-----------------------------------|
B|-----------------------------------|
G|--5-4-5-4--7--10-9--9-9-9-9-9------|
D|--5-4-5-4--7--10-9--9-9-9-9-9------|
A|--3-2-3-2--5--8--7--7-7-7-7-7------|
E|-----------------------------------|

Fill 2

e|--12---------------------|
B|--16b-15p12-15p12--------|
G|------------------14p12--|
D|-------------------------|
A|-------------------------|
E|-------------------------|

e|-----------------------------------|
B|-----------------------------------|
G|--5-4-5-4--7--10-9--9-9-9-9-9------|
D|--5-4-5-4--7--10-9--9-9-9-9-9------|
A|--3-2-3-2--5--8--7--7-7-7-7-7------|
E|-----------------------------------|

Fill 1

e|----------------------|
B|--------------8~------|
G|--------7h8h9---------|
D|--7h8h9---------------|
A|----------------------|
E|----------------------|

e|-----------------------------------|
B|-----------------------------------|
G|--5-4-5-4--7--10-9--9-9-9-9-9------|
D|--5-4-5-4--7--10-9--9-9-9-9-9------|
A|--3-2-3-2--5--8--7--7-7-7-7-7------|
E|-----------------------------------|

Fill 6

e|-----------------------|
B|--14--12--14-12-14-----|
G|--14--12--14-12-14-14--|
D|-------------------14--|
A|-----------------------|
E|-----------------------|

                         x4
e|----------------------|
B|----------------------|
G|--9-10-9--10-12-------|
D|--9-10-9--10-12-------|
A|--7-8--7--8--10-------|
E|----------------------|

       let ring      
e|----------------------|
B|----------------------|
G|-----9----------------|
D|-----9----------------|
A|-----7----------------|
E|----------------------|

e|----------------------|
B|----------------------|
G|-----9----------------|
D|-----9----------------|
A|-----7----------------|
E|----------------------|

And Thats it so enjoy and have fun.
Добавлено: 10.07.2013
Вам также может быть интересно:
Другие материалы по этой песне:
  • Аккорды и текст

Страница создана 10.07.2013
http://primanota.ru/murphys-law/beer-chords.htm
Привет, Гость.
Предлагаем пройти революционный курс по гитаре.
Подарок от PrimaNota.Ru, забирай!