PrimaNota.ru - самый крупный в мире бесплатный архив песенных текстов, аккордов, табулатур и нот


Murderdolls - Summertime Suicde - бас-таба, видео

Регистрация Запомнить меня
Войти через:  Facebook Google Twitter Vk Yandex Mail.ru

Murderdolls - Summertime Suicde - бас-таба, видео

Печатать
Просмотров: 189
Уроки эстрадного вокала в Санкт-Петербурге
Murderdolls - Summertime Suicide



PRE-VERSE
F|------------------------------------------------------------------|
C|------------------------------------------------------------------|
G|------------------------------------------------------------------|
C|--3-3-3-3-3-3-3-3-3-3-3-3-3-3-3-3-3-3-3-3-3-3-3-3-3-3-3-3-3-------|

VERSE 1
F|------------------------------------------------------------------|
C|------------------------------------------------------------------|
G|------------------------------------------------------------------|
C|--3-3-3-3-3-3-3-3-3-3-3-3-3-3-3-3-0-0-0-0-0-0-0-0-0-0-0-0-0-0-0-0-|
 

F|------------------------------------------------------------------|
C|------------------------------------------------------------------|
G|--1-1-1-1-1-1-1-1-3-3-3-3-3-3-3-3---------------------------3---3-|
C|----------------------------------0-0-0-0-0-0-0-0-0-0-0-0-0-------|
 

F|------------------------------------------------------------------|
C|------------------------------------------------------------------|
G|------------------------------------------------------------------|
C|--3-3-3-3-3-3-3-3-3-3-3-3-3-3-3-3-0-0-0-0-0-0-0-0-0-0-0-0-0-0-0-0-

F|------------------------------------------------------------------|
C|------------------------------------------------------------------|
G|--1-1-1-1-1-1-1-1-3-3-3-3-3-3-3-3-------------------------5---3---|
C|----------------------------------0-0-0-0-0-0-0-0-0-0-0-0---------|

PRE-CHORUS
F|------------------------------------------------------------------|
C|------------------------------------------------------------------|
G|--1---1---1---1---3---3---3---3---3/5-5-5-5-5-5-5-5-5-5-5-5-5-5-5-|
C|------------------------------------------------------------------|
          
F|----------------------------------|
C|----------------------------------|
G|--1---1---1---1---3---------------|
C|----------------------------------|

CHORUS

F|------------------------------------------------------------------|
C|------------------------------------------------------------------|
G|------------------3---3---3---3---5---5---5-3---1-----1---1---1---|
C|--3---3---3---3---------------------------------------------------|
   
F|------------------------------------------------------------------|
C|------------------------------------------------------------------|
G|------------------3---3---3---3---5---5---5-3---1-----1---1---1---|
C|--3---3---3---3---------------------------------------------------|
   
F|------------------------------------------------------------------|
C|------------------------------------------------------------------|
G|------------------3-3-------------5---5---5-3---1-----1---1---1---|
C|--3-3-------------------------------------------------------------|
   
F|-------------------------------------------------------------------|
C|-------------------------------------------------------------------|
G|------------------3---3---3---3---3/5-5-5-5-5-5-5-5-5-5-5-5-5-5-3--|
C|--3---3---3---3----------------------------------------------------|
      
F|----------------------------------|
C|----------------------------------|
G|---/5-5-5-5-5-5-5-3---------------|
C|----------------------------------|


PRE-VERSE

F|------------------------------------------------------------------|
C|------------------------------------------------------------------|
G|------------------------------------------------------------3---3-|
C|--3-3-3-3-3-3-3-3-3-3-3-3-3-3-3-3-3-3-3-3-3-3-3-3-3-3-3-3-3-------|
  

VERSE 2

F|------------------------------------------------------------------|
C|------------------------------------------------------------------|
G|------------------------------------------------------------------|
C|--3-3-3-3-3-3-3-3-3-3-3-3-3-3-3-3-0-0-0-0-0-0-0-0-0-0-0-0-0-0-0-0-|
 
F|------------------------------------------------------------------|
C|------------------------------------------------------------------|
G|--1-1-1-1-1-1-1-1-3-3-3-3-3-3-3-3---------------------------3---3-|
C|----------------------------------0-0-0-0-0-0-0-0-0-0-0-0-0-------|
  
F|------------------------------------------------------------------|
C|------------------------------------------------------------------|
G|------------------------------------------------------------------|
C|--3-3-3-3-3-3-3-3-3-3-3-3-3-3-3-3-0-0-0-0-0-0-0-0-0-0-0-0-0-0-0-0-|
  
F|------------------------------------------------------------------|
C|------------------------------------------------------------------|
G|--1-1-1-1-1-1-1-1-3-3-3-3-3-3-3-3-------------------------5---3---|
C|----------------------------------0-0-0-0-0-0-0-0-0-0-0-0---------|
  

PRE-CHORUS

F|------------------------------------------------------------------|
C|------------------------------------------------------------------|
G|--1---1---1---1---3---3---3---3---3/5-5-5-5-5-5-5-5-5-5-5-5-5-5-5-|
C|------------------------------------------------------------------|
                 
F|----------------------------------|
C|----------------------------------|
G|--1---1---1---1---3---------------|
C|----------------------------------|
  

CHORUS

F|------------------------------------------------------------------|
C|------------------------------------------------------------------|
G|------------------3---3---3---3---5---5---5-3---1-----1---1---1---|
C|--3---3---3---3---------------------------------------------------|
   
F|------------------------------------------------------------------|
C|------------------------------------------------------------------|
G|------------------3---3---3---3---5---5---5-3---1-----1---1---1---|
C|--3---3---3---3---------------------------------------------------|
   
F|------------------------------------------------------------------|
C|------------------------------------------------------------------|
G|------------------3-3-------------5---5---5-3---1-----1---1---1---|
C|--3-3-------------------------------------------------------------|
   
F|-------------------------------------------------------------------|
C|-------------------------------------------------------------------|
G|------------------3---3---3---3---3/5-5-5-5-5-5-5-5-5-5-5-5-5-5-3--|
C|--3---3---3---3----------------------------------------------------|
 
F|----------------------------------|
C|----------------------------------|
G|---/5-5-5-5-5-5-5-3-3-3-3-3-3-3-3-|
C|----------------------------------|
      

SOLO

F|------------------------------------------------------------------|
C|------------------------------------------------------------------|
G|------------------3---3---3---3---5---5---5-3---1-----1---1---1---|
C|--3---3---3---3---------------------------------------------------|


F|------------------------------------------------------------------|
C|------------------------------------------------------------------|
G|------------------3---3---3---3---5---5---5-3---1-----1---1---1---|
C|--3---3---3---3---------------------------------------------------|
  
F|------------------------------------------------------------------|
C|------------------------------------------------------------------|
G|------------------3---3---3---3---5---5---5-3---1-----1---1---1---|
C|--3---3---3---3---------------------------------------------------|
 
F|-------------------------------------------------------------------|
C|-------------------------------------------------------------------|
G|------------------3---3---3---3---3/5-5-5-5-5-5-5-5-5-5-5-5-5-5-3--|
C|--3---3---3---3----------------------------------------------------|
         
F|----------------------------------|
C|----------------------------------|
G|---/5-5-5-5-5-5-5-3---------------|
C|----------------------------------|
   

CHORUS

F|------------------------------------------------------------------|
C|------------------------------------------------------------------|
G|------------------3---3---3---3---5---5---5-3---1-----1---1---1---|
C|--3---3---3---3---------------------------------------------------|
   
F|------------------------------------------------------------------|
C|------------------------------------------------------------------||
G|------------------3---3---3---3---5---5---5-3---1-----1---1---1---|
C|--3---3---3---3---------------------------------------------------|
   
F|------------------------------------------------------------------|
C|------------------------------------------------------------------|
G|------------------3-3-------------5---5---5-3---1-----1---1---1---|
C|--3-3-------------------------------------------------------------|
   

F|-------------------------------------------------------------------|
C|-------------------------------------------------------------------|
G|------------------3---3---3---3---3/5-5-5-5-5-5-5-5-5-5-5-5-5-5-3--|
C|--3---3---3---3----------------------------------------------------|

F|-------------------------------------------------------------------|
C|-------------------------------------------------------------------|
G|---/5-5-5-5-5-5-5-5-5-5-5-5-5-5-3--/5-5-5-5-5-5-5-5-5-5-5-5-5-5-3--|
C|-------------------------------------------------------------------|
    
F|------------------------------------------------------------------|
C|------------------------------------------------------------------|
G|---/5-5-5-5-5-5-5-3-3-3-3-3-1-0-----------------------------------|
C|--------------------------------5-3-------------------------------|

Hammer

Anything Questions Or Anything Just E.Mail Me @ dropdeadhammer@hotmail.co.uk
Добавлено: 12.04.2012
Другие материалы по этой песне:
  • Аккорды и текст

Страница создана 12.04.2012
http://primanota.ru/murderdolls/summertime-suicde-chords.htm
Привет, Гость.
Предлагаем пройти революционный курс по гитаре.
Подарок от PrimaNota.Ru, забирай!