PrimaNota.ru - самый крупный в мире бесплатный архив песенных текстов, аккордов, табулатур и нот


Murderdolls - Rock N Roll Is All I Got - текст песни, таба, бас-таба, видео

Регистрация Запомнить меня
Войти через:  Facebook Google Twitter Vk Yandex Mail.ru

Murderdolls - Rock N Roll Is All I Got - текст песни, таба, бас-таба, видео

Печатать
Просмотров: 307
"Rock N Roll Is All I Got" - Murderdolls

Tabbed By: Sheppy96
Email:     msheppard96googlemailcom

===========================================================================================



Riff A

D|---------------------------------------------------------|
A|---------------------------------------------------------|
F|---------------------------------------------------------|
C|---------------------------------------------------------|
G|--6-6-5--3-3-5--5-5-5-5-5-5--0--3--5--6--0--0-0-0-0-0-0--|
C|--6-6-5--3-3-5--5-5-5-5-5-5--0--3--5--6--0--0-0-0-0-0-0--|
                  . . . . . .                 . . . . . .



Riff B

D|----------------------------------------------------------------|
A|----------------------------------------------------------------|
F|--------------------------/20p18--------------------------------|
C|--/12~---18b(19)-18b(19)---------19p17~-17b(19)-17-17b(19)-19~--|
G|----------------------------------------------------------------|
C|----------------------------------------------------------------|

D|---------------------------------------------------------------------|
A|---------------------------------------------------------------------|
F|--14p13p12----12~------------12-12-12-12-12-12-12-12b(14)~------19~--|
C|-----------15-----15p14p12~---------------------------------0--------|
G|---------------------------------------------------------------------|
C|---------------------------------------------------------------------|
                                      .  .  .  .



Riff C
                             |:                 Repeat x 2                  :|
D|---------------------------|-----------------------------------------------|
A|---------------------------|-----------------------------------------------|
F|---------------------------|-----------------------------------------------|
C|--12--------12\--------3\--|-----------------------------------------------|
G|--12--------12\--------3\--|--0-0-0-0-0----0-0-0-0-0----0-0-0-0-0----0-5~--|
C|--12--------12\--------3\--|--0-0-0-0-0-3~-0-0-0-0-0-3~-0-0-0-0-0-3~-0-5~--|
                                . . . . .    . . . . .    . . . . .    .



Riff D

D|-----------------------------------------------------------------------------|
A|-----------------------------------------------------------------------------|
F|-----------------------------------------------------------------------------|
C|--3---5---------------------------------------------------------3----2----1--|
G|--3---5---5-6-0-0-0-0-0-3--0-0-0-0-0-6--0-0-0-0-0-3--0-0-0-0-0--3----2----1--|
C|--3---5---5-6-0-0-0-0-0-3--0-0-0-0-0-6--0-0-0-0-0-3--0-0-0-0-0--3----2----1--|
                . . . . .    . . . . .    . . . . .    . . . . .




Riff E

D|----------------------------------------------------------------|
A|----------------------------------------------------------------|
F|----------------------------------------------------------------|
C|----------------------------------------3-----------------------|
G|--0-0--0-0--0-0--0--0-0-0--0-0-0--0-0-0-3-10h12p10h12p10--------|
C|--0-0--0-0--0-0--0--0-0-0--0-0-0--0-0-0-3----------------12p10--|
    . .  . .  . .  .  . . .  . . . . .



Riff F
 |: Rpt. x7 :|                              TP.___
D|-----------|---------------------------------------|
A|--10-------|--14b(15)-15p13------------------------|
F|--13b(14)--|----------------14p12------------------|
C|-----------|----------------------15p14p12--12/15--|
G|-----------|---------------------------------------|
C|-----------|---------------------------------------|
  Unison Bend


D|-------------------------------------------------------------------------------------|
A|-------------------------------------------------------------------------------------|
F|--12h14h17p14p12-12h14h17p14p12-12/14~--12p10----10----------------------------------|
C|----------------------------------------------12----12p11p10----10-------------------|
G|-------------------------------------------------------------12----12p10-10p8h10p8---|
C|-------------------------------------------------------------------------------------|

                                               Tremolo Picking_______     
D|---------------------------10-10-10-14b(15)-----------15-----------------|
A|---------------------------------------------15-17-18----18-17-18---15~--|
F|--------10----12p10----10~-----------------------------------------------|
C|--10h12----12-------12---------------------------------------------------|
G|-------------------------------------------------------------------------|
C|-------------------------------------------------------------------------|

    _____         _____         _____
D|----------------------------------------------10-\9-\8-\7-\6m-----------------------------|
A|--15p13-14b(15)-------------------------------10-\9-\8-\7-\6m-----------------------------|
F|----------------14p12-13b(14)-----------------10-\9-\8-\7-\6m--------(MANY BARS OF)-------|
C|------------------------------14p12-13b(14)~--------------------12\--(  SILENCE   )--12\--|
G|----------------------------------------------------------------12\------------------12\--|
C|----------------------------------------------------------------12\------------------12\--|




Riff G

D|----------------3-4-----|
A|--9-8-6-8~--3-6-----3~--|
F|------------------------|
C|------------------------|
G|------------------------|
C|------------------------|



===========================================================================================



ORDER:

Riff A      x 4
(Riff B join in part way through Ax2)
Riff C      x 1
Riff D      x 1
Riff E      x 2

Riff A      x 2
RIff C      x 1
Riff D      x 1
Riff E      x 2

Riff F      x 1
(Riff A backing for x 4)

Riff A      x 8
(Riff G over top for last 4 bars [starting Ax5])



===========================================================================================


LEGEND:

.                                       Palm-mute
/                                       Slide up
\                                       Slide down
b                                       Bend
h                                       Hammer-on
p                                       Pull-off
~                                       Vibrato
m                                       Mute strings
Tremolo Picking___ / TP.____            Tremolo pick all notes underneath the underscores
Добавлено: 03.06.2012
Другие материалы по этой песне:
  • Аккорды и текст

Страница создана 03.06.2012
http://primanota.ru/murderdolls/rock-n-roll-is-all-i-got-chords.htm
Привет, Гость.
Предлагаем пройти революционный курс по гитаре.
Подарок от PrimaNota.Ru, забирай!