PrimaNota.ru - самый крупный в мире бесплатный архив песенных текстов, аккордов, табулатур и нот


Murderdolls - Pieces Of You - текст песни, таба, бас-таба, видео

Регистрация Запомнить меня
Войти через:  Facebook Google Twitter Vk Yandex Mail.ru

Murderdolls - Pieces Of You - текст песни, таба, бас-таба, видео

Печатать
Просмотров: 310
Уроки эстрадного вокала в Санкт-Петербурге
Tabbed By:    Sheppy96
Email:        msheppard96@googlemail.com

Here's another Murderdolls tab.
I'm not too sure about the solo though, so email me if you have any ideas for correcting it.


Riff A
D|---------------------|
A|---------------------|
F|---------------------|
C|--0--0-5-5-5-4--444--|
G|--0--0-5-5-5-4--444--|
C|--0--0-5-5-5-4--444--|


Riff B
D|-----------------------------------------------|
A|-----------------------------------------------|
F|-----------------------------------------------|
C|--0--0-5-5-5-4--444--5m-5m-5m-5m-4m-4m-7777----|
G|--0--0-5-5-5-4--444--5m-5m-5m-5m-4m-4m-7777----|
C|--0--0-5-5-5-4--444--5m-5m-5m-5m-4m-4m-7777----|


Riff C
D|-----------------|
A|-----------------|
F|-----------------|
C|--5---7---4---5--|
G|--5---7---4---5--|
C|--5---7---4---5--|

Riff D

D|----------------------------------------------------------|
A|----------------------------------------------------------|
F|--6/7--6/7--6/7--7-9-9/11--9/11-11h12-11-9-7--7b9r7b9r7~--|
C|----------------------------------------------------------|
G|----------------------------------------------------------|
C|----------------------------------------------------------|


Riff E

I have put in some unison bends, but you could use a normal bend, though a unison sounds 
better if you get it right and is also a better exercise.

D|------------------------------------------------------------------------------------|
A|-----------------------------------------10-------10----------10----------10--------|
F|--6/7-7~--7/9-9~--9/11-11-11~--11/12--12-12b14-12-12-12b14-12-12-12b14-12-12-12b14--|
C|------------------------------------------------------------------------------------|
G|------------------------------------------------------------------------------------|
C|------------------------------------------------------------------------------------|


Riff F

This is the bit I'm really not sure of...sorry :/

D|---------------------------------------------------------------------|
A|---------------------------------------------------------------------|
F|--14h16p14p12h14-14--17p15p13-17p15p13-17p15p13--14--15-15-15-15~-15\|
C|---------------------------------------------------------------------|
G|---------------------------------------------------------------------|
C|---------------------------------------------------------------------|

Riff G

D|-----|
A|-----|
F|-----|
C|--0--|
G|--0--|
C|--0--|


====================================================================


Intro:   Riff A x 2
         Riff B x 1

Verse:   Riff A x 2
         Riff B x 1
         Riff A x 2
         Riff B x 1

Chorus:  Riff C x 2

Verse:
         Riff A x 2
         Riff B x 1
         Riff A x 2
         Riff B x 1

Solo:    Riff D x 1
         Riff E x 1
         Riff F x 1

Chorus:  Riff C x 4

Verse:
         Riff A x 2
         Riff B x 1
         Riff A x 2
         Riff B x 1

End:     Riff G x 1


====================================================================

h        Hammer-on
p        Pull of
/        Slide up
\        Slide down
~        Vibrato
m        Mute string after playing
Добавлено: 09.04.2012
Другие материалы по этой песне:
  • Аккорды и текст

Страница создана 24.03.2012
http://primanota.ru/murderdolls/pieces-of-you-chords.htm
Привет, Гость.
Предлагаем пройти революционный курс по гитаре.
Подарок от PrimaNota.Ru, забирай!