PrimaNota.ru - самый крупный в мире бесплатный архив песенных текстов, аккордов, табулатур и нот


Murderdolls - Kill Mis America - аккорды и текст, таба, видео

Регистрация Запомнить меня
Войти через:  Facebook Google Twitter Vk Yandex Mail.ru

Murderdolls - Kill Mis America - аккорды и текст, таба, видео

Печатать
Просмотров: 76
Kill Mis America
Murderdolls
		   Murderdolls - Kill Miss America (Guitar Tab)

This song is tricky, even though i am an experience guitarist, the timing
was difficult to get the hang of...just practise it over and over again
with the music in the background for backing..dont give up! :)

Intro:

e-------------------------------------------------------------------|
B-------------------------------------------------------------------|
G-------------------------------------------------------------------|
D-------------------------------------------------------------------|
A--------4-5-5-5-0-6-7-7-6-7-7-7------------------------------------|
E-2/3-3-3-----------------------------------------------------------|

(4 times)
Tricky but keep trying!


Verse:

e-------------------------------------------------------------------|
B-------------------------------------------------------------------|
G-------------------------------------------------------------------|
D-7-7-7-7-7-7-7-7--12--12-12--12-12-12--9--9-9--9-9-9---------------|
A-7-7-7-7-7-7-7-7--12--12-12--12-12-12--9--9-9--9-9-9---------------|
E-5-5-5-5-5-5-5-5--10--10-10--10-10-10--7--7-7--7-7-7---------------|
(2 times)


Pre-Chorus:

e-------------------------------------------------------------------|
B-------------------------------------------------------------------|
G-------------------------------------------------------------------|
D-2--2-2--2-2-2---5--5-5--5-5-5---7--7-5-7--7-5-7--7-5-7--7--5------|
A-2--2-2--2-2-2---5--5-5--5-5-5---7--7-5-7--7-5-7--7-5-7--7--5------|
E-0--0-0--0-0-0---3--3-3--3-3-3---5--5-3-5--5-3-5--5-3-5--5--3------|

                                  Slide this bit, but dont forget to
				  strum the chords even though you are
				  sliding.

e-------------------------------------------------------------------|
B-------------------------------------------------------------------|
G-------------------------------------------------------------------|
D-2--2-2--2-2-2---5--5-5--5-5-5---7-7-7-7-7-------------------------|
A-2--2-2--2-2-2---5--5-5--5-5-5---7-7-7-7-7-------------------------|
E-0--0-0--0-0-0---3--3-3--3-3-3---5-5-5-5-5-------------------------|

i dont care what it takes im gonna win the prize....im gonna kill miss

america...

e-------------------------------------------------------------------|
B-------------------------------------------------------------------|
G-------------------------------------------------------------------|
D-------------------------------------------------------------------|
A--------4-5-5-5-0-6-7-7-6-7-7-7------------------------------------|
E-2/3-3-3-----------------------------------------------------------|

(4 times)

Then the solo:

e-17-15------------------------17-15--------------------------------|
B-------17-15-----15-17-17-----------17-15-----15-17-17-------------|
G-------------17--14-16-16-----------------17--14-16-16-------------|
D-------------------------------------------------------------------|
A-------------------------------------------------------------------|
E-------------------------------------------------------------------|

e-17--12---17--12-----------17-17-----------------------------------|
B-17--12---17--12---16^(17)-------15--------------------------------|
G------------------------------------17-14--------------------------|
D-------------------------------------------------------------------|
A-------------------------------------------------------------------|
E-------------------------------------------------------------------|
Pick as fast as you can for the "12"s and "17"s


Rythm guitar plays this under solo:

e-------------------------------------------------------------------|
B-------------------------------------------------------------------|
G----------9-9-9-9--9-9-9-----------9-9-9-9--9-9-9------------------|
D-7-7-7-7--9-9-9-9--9-9-9--7-7-7-7--9-9-9-9--9-9-9------------------|
A-7-7-7-7--7-7-7-7--7-7-7--7-7-7-7--7-7-7-7--7-7-7------------------|
E-5-5-5-5------------------5-5-5-5----------------------------------|

e-------------------------------------------------------------------|
B-------------------------------------------------------------------|
G-------------------------------------------------------------------|
D-7-7-7----7-7-7------7-7-7-7-7-------------------------------------|
A-7-7-7----7-7-7------7-7-7-7-7-------------------------------------|
E-5-5-5-0--5-5-5-0----5-5-5-5-5-------------------------------------|

back to:

VERSE
PRE-CHORUS
CHORUS

Then the 2nd solo (i like this!)

e------5------5------------------------------------------------------|
B------5------5----8^(10)^8-5-8^(10)^8-5-8^(10)----------------8-----|
G-7^(8)--7^(8)---5------------------------------5-------5-4----7-----|
D-----------------------------------------------------5-----8--6-----|
A-------------------------------------------------7-7----------------|
E--------------------------------------------------------------------|
                                                 PM..

e------5------5-------9-8-7----------------------12-15-17^(20)17~----|
B------5------5------------------------13-15-16----------------------|
G-7^(8)--7^(8)--7^(8)------7-6-5~---/14------------------------------|
D--------------------------------------------------------------------|
A--------------------------------------------------------------------|
E--------------------------------------------------------------------|

This solo is blatantly a bit wrong...but who cares? its all about the
spirit of music!!!...keep it up...LETS GO!!!


e--------------------------------------------------------------------|
B--------------------------------------------------------------------|
G---------------------------------7--7-7---9--9-9-9-9-9-9-9----------|
D-9-9-9-9--9-9-9-9--9-9-9-9--9-5--7--7-7---9--9-9-9-9-9-9-9----------|
A-9-9-9-9--9-9-9-9--9-9-9-9--9-5--5--5-5---7--7-7-7-7-7-7-7----------|
E-7-7-7-7--7-7-7-7--7-7-7-7--7-3---------5---------------------------|
(2 times)

then:
e-------------------------------------------------------------------|
B-------------------------------------------------------------------|
G-------------------------------------------------------------------|
D-------------------------------------------------------------------|
A-9-9-9-9--9-9-9-9--9-9-9-9--9-9-9-9--9---x//////////////-----------|
E-------------------------------------------------------------------|
					pick scrape...
back to:

CHORUS


then over the chorus is a outro solo:

e-12--17---12--17---12--17---12--17---12--17------------------------|
B-12--17---12--17---12--17---12--17---12--17------------------------|
G-------------------------------------------------------------------|
D-------------------------------------------------------------------|
A-------------------------------------------------------------------|
E-------------------------------------------------------------------|
(3 times)
This is done in hyper picking (picking as fast as you can)

e-------------------------------------------------------------------|
B-15-13-----15-13-----------13~---------------13~-15^(17)-----------|
G-------14--------14--12-14-----x////------14-----------------------|
D-------------------------------------14------------------14--------|
A-------------------------------------------------------------------|
E-------------------------------------------------------------------|
			      (Small pick scrape)


Then the chord progression in the rythm changes to:

e-------------------------------------------------------------------|
B-------------------------------------------------------------------|
G-------------------------------------------------------------------|
D-7-----2-----7-----2---7-7-2-2--7-7-2-2----------------------------|
A-7-----2-----7-----2---7-7-2-2--7-7-2-2----------------------------|
E-5-----0-----5-----0---5-5-0-0--5-5-0-0----------------------------|

the solo continues...
e-------------------------------------------------------------------|
B-----17----17--17--17----------------------------------------------|
G-14----14~---14--14--14/-------------------------------------------|
D-------------------------------------------------------------------|
A-------------------------------------------------------------------|
E-------------------------------------------------------------------|

e-------------------------------------------------------------------|
B-------------------------------------------------------------------|
G-------------------------------------------------------------------|
D-7-7-7-7-7---------------------------------------------------------|
A-7-7-7-7-7---------------------------------------------------------|
E-5-5-5-5-5---------------------------------------------------------|
and finished off with these chords (with the solo over it as well!)

Id just like to say, this took me absolutely ages!!! the solo was so
hard to transcribe. I hope you will all make use of it thanx for your time




my email is mr_mother_fcker@hotmail.com
any comments or anything you can add me on msn... even if you just want to chat
i dont mind     
Добавлено: 13.08.2013
Другие материалы по этой песне:
  • Аккорды и текст

Страница создана 13.08.2013
http://primanota.ru/murderdolls/kill-mis-america-chords.htm
Привет, Гость.
Предлагаем пройти революционный курс по гитаре.
Подарок от PrimaNota.Ru, забирай!