PrimaNota.ru - самый крупный в мире бесплатный архив песенных текстов, аккордов, табулатур и нот


Murderdolls - Bored Til Death - текст песни, таба, видео

Регистрация Запомнить меня
Войти через:  Facebook Google Twitter Vk Yandex Mail.ru

Murderdolls - Bored Til Death - текст песни, таба, видео

Печатать
Просмотров: 209
Уроки эстрадного вокала в Санкт-Петербурге
Tabbed By:   Sheppy96
Email:       msheppard96@googlemail.com

Here's another Murderdolls tab from Women and Children Last :)
This is Bored 'Til Death...pretty easy song. The order looks complicated and to be 
honest it is a little bit...but learning the riffs isn't hard as they pretty much follow the 
same pattern throughout.

=========================================================


Intro

        RIFF A
        D|--------------|
        A|--------------|
        F|--------------|
        C|--5--4-2-5-4--|
        G|--5--4-2-5-4--|
        c|--5--4-2-5-4--|

        RIFF B
        D|--------------------------|
        A|--------------------------|
        F|--------------------------|
        C|--5-4-2-5-4-2-5--4-2-5-4--|
        G|--5-4-2-5-4-2-5--4-2-5-4--|
        C|--5-4-2-5-4-2-5--4-2-5-4--|

        RIFF C
        D|------------------------------|
        A|------------------------------|
        F|------------------------------|
        C|--2-4-5-4-2-5--4-2-5-4-4-4-4--|
        G|--2-4-5-4-2-5--4-2-5-4-4-4-4--|
        C|--2-4-5-4-2-5--4-2-5-4-4-4-4--|
                                 . . .

        RIFF D
        D|------------------------------|
        A|------------------------------|
        F|------------------------------|
        C|--5-4-5-4-2-5--4-2-5-4-4-4-4--|
        G|--5-4-5-4-2-5--4-2-5-4-4-4-4--|
        C|--5-4-5-4-2-5--4-2-5-4-4-4-4--|
                                 . . .



Verse

        RIFF E
        D|-------------|
        A|-------------|
        F|-------------|
        C|--5-4-5-4-2--|
        G|--5-4-5-4-2--|
        C|--5-4-5-4-2--|


        RIFF F
        D|-------------------|
        A|-------------------|
        F|-------------------|
        C|-------------------|
        G|-------------------|
        C|--5--4-2-5-4-4-4-4-|
                       . . .

        RIFF G
        D|--------------------------------|
        A|--------------------------------|
        F|--------------------------------|
        C|--------------------------------|
        G|--------------------------------|
        C|--5-4-5-4-2-5(~)-4-2-5-4-4-4-4--|
                                   . . .

        RIFF H
        D|-------------|
        A|-------------|
        F|-------------|
        C|-------------|
        G|-------------|
        C|--5-4-5-4-2--|



Chorus

        RIFF H
        D|-----------------------------------|
        A|-----------------------------------|
        F|-----------------------------------|
        C|--7-7-7-7-7-7-7-7-5-5-5-5-4-4-4-4--|
        G|--7-7-7-7-7-7-7-7-5-5-5-5-4-4-4-4--|
        C|--7-7-7-7-7-7-7-7-5-5-5-5-4-4-4-4--|


        RIFF I
        D|--------------------|
        A|--------------------|
        F|--------------------|
        C|--5--4-2-5-4-4-4-4--|
        G|--5--4-2-5-4-4-4-4--|
        c|--5--4-2-5-4-4-4-4--|
                       . . .

Solo

        RIFF J
        D|--------------------------------|
        A|--------------------------------|
        F|--9b10--------(12)b11----14--\--|
        C|--------------------------------|
        G|--------------------------------|
        C|--------------------------------|



=========================================================

Order

INTRO:  Riff A x 1
        Riff B x 3
        Riff C x 1
        Riff D x 3

VERSE:  Riff E x 1
        Riff F x 1
        Riff G x 4
        Riff H x 4
        Riff F x 1
        Riff G x 3
        Riff E x 1

CHORUS: Riff H x 1
        Riff I x 1
        Riff D x 1
        Riff E x 1
        Riff H x 1
        Riff I x 1
        Riff D x 4
        Riff E x 1

SOLO:   Riff J x 1
BACKING:Riff I x 1
        Riff D x 3
        Riff E x 1

CHORUS: Riff H x 1
        Riff I x 1
        Riff D x 1
        Riff E x 1
        Riff H x 1
        Riff I x 1
        Riff D x 4
        Riff E x 1

ENDING: Riff A x 1
        Riff B x 3
        Riff E x 1
        Riff I x 1 (No palm-mutes)

       {Riff G x 3 (Add vibrato, no palm-mutes)
        Riff H x 1
        Riff I x 1}

        {} = repeat till fade

=========================================================


LEGEND:
	.	Palm Mute
	b	Bend to next note
	()b	Pre-bend bracket note, release to next note
	\	Slide down
	(~)	Vibrato when stated


=========================================================
Добавлено: 26.07.2013
Другие материалы по этой песне:
  • Аккорды и текст

Страница создана 26.07.2013
http://primanota.ru/murderdolls/bored-til-death-chords.htm
Привет, Гость.
Предлагаем пройти революционный курс по гитаре.
Подарок от PrimaNota.Ru, забирай!