PrimaNota.ru - самый крупный в мире бесплатный архив песенных текстов, аккордов, табулатур и нот


Murder Squad - Bloodfreak - текст песни, таба, видео

Регистрация Запомнить меня
Войти через:  Facebook Google Twitter Vk Yandex Mail.ru

Murder Squad - Bloodfreak - текст песни, таба, видео

Печатать
Просмотров: 92
Уроки эстрадного вокала в Санкт-Петербурге
Murder Squad - Bloodfreak

Tune down 3 whole steps AKA Bb tuning


INTRO RIFF 6X  (LET NOTES RING TOGETHER)
|-------------------------------------------------------------------------|
|----------------------------------FULLY-DISTORTED------------------------|
|------9-----10p9--9--------ROLL-BACK-VOLUME-KNOB-FOR-CLARITY-------------|
|--------8-------8--------------------------------------------------------|
|----7-----7--------------------------------------------------------------|
|----0-----------------/6~~~----------------------------------------------|


SECOND RIFF  0:35  2x
|-------------------------------------------------------------------------|
|-------------------------------------------------------------------------|
|-------------------------------------------------------------------------|
|-------------------------------------------------------------------------|
|-------------------------------------------------------------------------|
|-----0h1p0-1-/3h4p3~~-1h3p1-----0-1p0-/3h4~~-1-1-1-----------------------|

VARIATION    0:57  2x
|-------------------------------------------------------------------------|
|-------------------------------------------------------------------------|
|-------------------------------------------------------------------------|
|-------------------------------------------------------------------------|
|-----2-3-2-3--5/6/5~~-3/5/3-----2-3-2--5/6~~-3-3-3-----------------------|
|-----0-1-0-1--3/4/3~~-1/3/1-----0-1-0--3/4~~-1-1-1-----------------------|



FIRST VERSE  1:19   1x
|-------------------------------------------------------------------------|
|-------------------------------------------------------------------------|
|-----HOLD------------HOLD------------HOLD-----------HOLD-----------------|
|------2--------3-3-3--2--------3-3-3--2-------3-3-3--2-------3-3-3-------|
|------2--------3-3-3--2--------3-3-3--2-------3-3-3--2-------3-3-3-------|
|------0--------1-1-1--0--------1-1-1--0-------1-1-1--0-------1-1-1-------|



BREAK RIFF  1:42
|-------------------------------------------------------------------------|
|------------------------------------------------12~~---------------------|
|---------------9~~-------------------11~~-10-11-----11-10----------------|
|-------9~~-8-9-----9-8-----------/9~~--------------------11-12~~---------|
|---/7~~----------------9-10~~--------------------------------------------|
|-------------------------------------------------------------------------|
CTND
|-------------------------------------------------12~~--------------------|
|--------------------------------------12~~-11-12------12-11--------------|
|---------------------------------/9~~-----------------------11-12~~------|
|---------------2~~-------------------------------------------------------|
|-------2~~-1-2-----2-1---------------------------------------------------|
|----0------------------2-3~~---------------------------------------------|




 SECOND VERSE  1:59  
|-------------------------------------------------------------------------|
|-------------------------------------------------------------------------|
|-----HOLD------------HOLD------------HOLD-----------HOLD-----------------|
|------2--------3-3-3--2--------3-3-3--2-------3-3-3--2-------------------|
|------2--------3-3-3--2--------3-3-3--2-------3-3-3--2-------------------|
|------0--------1-1-1--0--------1-1-1--0-------1-1-1--0-------------------|

CTND   
|-------------------------------------------------------------------------|
|-----2:18-----2:19--------2:21-------------------------------------------|
|-------------------------------------------------------------------------|
|------2---------2---------3-3-3------------------------------------------|
|------2---------2---------3-3-3------------------------------------------|
|------0--BREAK--0--BREAK--1-1-1--BREAK-----------------------------------|
      PM        PM        PMPMPM



BREAK RIFF  2:23
|-------------------------------------------------------------------------|
|------------------------------------------------12~~---------------------|
|---------------9~~-------------------11~~-10-11-----11-10----------------|
|-------9~~-8-9-----9-8-----------/9~~--------------------11-12~~---------|
|---/7~~----------------9-10~~--------------------------------------------|
|-------------------------------------------------------------------------|
CTND
|-------------------------------------------------12~~--------------------|
|--------------------------------------12~~-11-12------12-11--------------|
|---------------------------------/9~~-----------------------11-12~~------|
|---------------2~~-------------------------------------------------------|
|-------2~~-1-2-----2-1---------------------------------------------------|
|----0------------------2-3~~---------------------------------------------|

VARIATION  2:39
|-------------------------------------------------------------------------|
|-------------------------------------------------------------------------|
|-------------------------------------------------------------------------|
|------------2~~----------------------2~~-----------------2~~-------------|
|----2~~-1-2----2-1-----------2~~-1-2----2-1~~----2~~-1-2----2-1~~--------|
|--0----------------2-3~~---0-------------------0-----------------2-3~~---|

CTND
|-------------------------------------------------------------------------|
|-------------------------------------------------------------------------|
|----------------------------END------------------------------------------|
|------------2~~------4-5-------------------------------------------------|
|----2~~-1-2-----2-1--4-5-------------------------------------------------|
|--0------------------2-3-------------------------------------------------|
Добавлено: 05.10.2013
Вам также может быть интересно:
Другие материалы по этой песне:
  • Аккорды и текст

Страница создана 27.07.2012
http://primanota.ru/murder-squad/bloodfreak-chords.htm
Привет, Гость.
Предлагаем пройти революционный курс по гитаре.
Подарок от PrimaNota.Ru, забирай!