PrimaNota.ru - самый крупный в мире бесплатный архив песенных текстов, аккордов, табулатур и нот


Murder City Devils - Dabncin Shoes - таба

Регистрация Запомнить меня
Войти через:  Facebook Google Twitter Vk Yandex Mail.ru

Murder City Devils - Dabncin Shoes - таба

Печатать
Просмотров: 82
-------------------------------------------------------------------------------
                             Dancin' Shoes – Murder City Devils
-------------------------------------------------------------------------------
Tabbed by: Jeremy Goddard
Email: jeremydgoddard@gmail.com

Tuning: Standard
Play each riff and lead several times. Listen to the cd for the timing and changes.
There will be some slight variations, but I think this is how its played.

Main Riff

e|-------------------------------|
B|-------------------------------|
G|-------------------------------|
D|-------------------------------|
A|----5-6-5--1-1-1-1-1-----------|
E|-3-------------------1-3-0-1/3-|

Lead
e|--------------------------|
B|-6h8-86-8-86-8-8-6-6h88-6-|
G|--------------------------|
D|--------------------------|
A|--------------------------|
E|--------------------------|

Riff Played behind lead.
e|--------------------------------|
B|--------------------------------|
G|----7-8-7--3-3-3-3-3------------|
D|-5--7-8-7--3-3-3-3-3--3-5---3/5-|
A|-5--5-6-5--1-1-1-1-1--3-5---3/5-|
E|-3--------------------1-3-0-1/3-|


Descending Lead           Chords played behind lead

e|-----------------------|----------------|
B|-8~8/6-6/3~-3-3-3-3-3~-|----------------|
G|-----------------------|----8-7-8-33333-|
D|-----------------------|--5-8-7-8-33333-|
A|-----------------------|--5-6-5-6-11111-|
E|-----------------------|--3-------------|


  Bridge  Play 3 times   then this once
e|----------------------|-------------|
B|----------------------|-------------|
G|-8888-----------------|-8888--------|
D|-8888-88---5-533h5-55-|-8888-88---3-|
A|-6666-88---5-533h5-55-|-6666-88---3-|
E|------66-0-3-333-3-33-|------66-0-3-|


************************************

| /   slide up
| \   slide down
| h   hammer-on
| p   pull-off
| ~   vibrato
| +   harmonic
| x   Mute note
| b   Bend
| pb  Pre-bend
| br  Bend release
| pbr Pre-bend release
| brb Bend release bend

************************************
Добавлено: 16.07.2012
Другие материалы по этой песне:
  • Аккорды и текст

Страница создана 16.07.2012
http://primanota.ru/murder-city-devils/dabncin-shoes-chords.htm
Привет, Гость.
Предлагаем пройти революционный курс по гитаре.
Подарок от PrimaNota.Ru, забирай!