PrimaNota.ru - самый крупный в мире бесплатный архив песенных текстов, аккордов, табулатур и нот


Municipal Waste - Pre-game - таба, видео

Регистрация Запомнить меня
Войти через:  Facebook Google Twitter Vk Yandex Mail.ru

Municipal Waste - Pre-game - таба, видео

Печатать
Просмотров: 123
Municipal Waste - Pre-Game
The Art Of Partying (2007)
Tabbed by ruker
Standard Tuning EADGBE

--------------
Key:
--------------
/  Slide Up
\  Slide Down
--------------


Intro (0:01)
 Both Guitars
||----------------------||
||----------------------||
||----------------------||
||----------------------||
||-7--------5---2-------||
||-5--------3---0-------||


Riff A (0:02)
||--------------------------------------------------------------------------------||
||*------------------------------------------------------------------------------*||
||--------------------------------------------------------------------------------||
||--------------------------------------------------------------------------------||
||*-----5--------7--------5----4---------------5--------7------------7----5------*||
||--22223----22225----2222--------5--4--5--22223----22225----000000005----3--0----||


Riff B1 (0:10)
 Left Guitar
||----------------------------------------------------------------------------||
||----------------------------------------------------------------------------||
||----------------------------------------------------------------------------||
||----------------------------------------------------------------------------||
||-------------5----------------7--------------------5--4--------------4/-5---||
||-2222222222223----2222222222225----2222222222222222------5--4--0--0--2/-3---||
|                                                                              |
|Right Guitar                                                                  |
||----------------------------------------------------------------------------||
||----------------------------------------------------------------------------||
||----------------------------------------------------------------------------||
||----------------------------------------------------------------------------||
||-4-----------5----4-----------7--------------------5--4--------------4/-5---||
||-2-----------3----2-----------5----2222222222222222------5--4--0--0--2/-3---||


Riff B2 (0:14)
 Both Guitars
||------------------------------------------------------------------------------||
||*----------------------------------------------------------------------------*||
||------------------------------------------------------------------------------||
||------------------------------------------------------------------------------||
||*-------------5----------------7--------------------5--4--------------4/-5---*||
||--2222222222223----2222222222225----2222222222222222------5--4--0--0--2/-3----||


Riff C (0:23)
||----------------------------------------------------------------------------------|
||----------------------------------------------------------------------------------|
||----------------------------------------------------------------------------------|
||-----------------5---4---5--------------------------------------------------------|
||-22222222222222223---2---3---5---4---5----------------------------3--2--3--5--3---|
||-----------------------------3---2---3---22222222222222225--3--2------------------|


|------------------------------------------||
|------------------------------------------||
|------------------------------------------||
|-----------------5---4---5----------------||
|-22222222222222223---2---3---5---4---5----||
|-----------------------------3---2---3----||


Riff A (0:29)
||------------------------------------------------------------------------------|
||------------------------------------------------------------------------------|
||------------------------------------------------------------------------------|
||------------------------------------------------------------------------------|
||-----5--------7--------5----4---------------5--------7------------7----5------|
||-22223----22225----2222--------5--4--5--22223----22225----000000005----3--0---|


|----------------------------------------------------------------------------------||
|----------------------------------------------------------------------------------||
|----------------------------------------------------------------------------------||
|----------------------------------------------------------------------------------||
|-----5--------7--------5----4---------------5--------7------------7---5---2---4---||
|-22223----22225----2222--------5--4--5--22223----22225----000000005---3---0---2---||
Добавлено: 31.10.2013
Другие материалы по этой песне:

Страница создана 13.06.2012
http://primanota.ru/municipal-waste/pre-game-chords.htm
Привет, Гость.
Предлагаем пройти революционный курс по гитаре.
Подарок от PrimaNota.Ru, забирай!