PrimaNota.ru - самый крупный в мире бесплатный архив песенных текстов, аккордов, табулатур и нот


Mundo Co - Caixao Da Razo - таба, видео

Регистрация Запомнить меня
Войти через:  Facebook Google Twitter Vk Yandex Mail.ru

Mundo Co - Caixao Da Razo - таба, видео

Печатать
Просмотров: 60
Mundo Cao
Caixao da Razao

tabbed by Kumekei

Drop D tuning

Verse
E|-----------------------------------------|
B|-----------------------------------------|
G|-----------------------------------------|
D|-----0--------0--------0--------0-----0--|
A|--------0--------0--------0--------------|
E|--0--------5--------3--------5-----3-----|

Chorus
E|--------------------------------------------------|
B|--------------------------------------------------|
G|--------------------------------------------------|
D|--------------------0--0--------------------3--3--|
A|--3--5--------------0--0--3--5--------------3--3--|
E|--------5--7--3--5--0--0--------5--7--3--5--3--3--|

E|--------------------------------------------------------------|
B|--------------------------------------------------------------|
G|--------------------------------------------------------------|
D|--------------------0--0--------------------3--3--3--0--3--3--|
A|--3--5--------------0--0--3--5--------------3--3--3--0--3--3--|
E|--------5--7--3--5--0--0--------5--7--3--5--3--3--3--0--3--3--|

Outro 1
E|-------------------------------|
B|-------------------------------|
G|-------------------------------|
D|--8--8--8--8--8--8--3-5--5--5--|
A|--8--8--8--8--8--8--3-5--5--5--|
E|--8--8--8--8--8--8--3\5--5--5--|

Outro 2
E|------------------------------------|
B|------------------------------------|
G|------------------------------------|
D|-----0------------0-----------------|
A|--------0------------0-----0-----0--|
E|--0--------2v--0--------2-----3-----|


(verse)
Uivo p'ra lua
Que vai tao alta
Corro na rua
Feito um pernalta
Tanta a folia
De liberdade
Que nem o dia
Me dissuade

(chorus)
Quero ser animal
Velho cao sem bordao
A lamber triunfal
O caixao da razao

(verse)
Mijo sem freio
Por entre a turba
Dizem que e feio
Nao me perturba
Gente lacaia
Presa no luxo
Meu Himalaia
E ser gaucho

(chorus)
Quero ser animal
Velho cao sem bordao
A lamber triunfal
O caixao da razao

(outro 1)
Cuidado com essa
Sereia
Cuidado que morde
Sem peia

(outro2)

(chorus)
Quero ser animal
Velho cao sem bordao
A lamber triunfal
O caixao da razao

Video: http://www.youtube.com/watch?v=ajDUGUqq_Go
Official site: http://www.myspace.com/mundocao
Добавлено: 14.06.2016
Вам также может быть интересно:
Другие материалы по этой песне:
  • Аккорды и текст

Страница создана 14.06.2016
http://primanota.ru/mundo-co/caixao-da-razo-chords.htm
Привет, Гость.
Предлагаем пройти революционный курс по гитаре.
Подарок от PrimaNota.Ru, забирай!