PrimaNota.ru - самый крупный в мире бесплатный архив песенных текстов, аккордов, табулатур и нот


Mumsdollar - A Biography - таба, видео

Регистрация Запомнить меня
Войти через:  Facebook Google Twitter Vk Yandex Mail.ru

Mumsdollar - A Biography - таба, видео

Печатать
Просмотров: 153
Mumsdollar - A Biography


Credit goes to James True for this tab
I Just fixed up some errors





INTRO 

Guitar 1
e|----------------------------|
B|----------------------------|
G|---9---8---6----------------|
D|---x---x---x----------------|
A|---7---6---4----------------|
D|----------------------------|


Guitar 2
e|----------------------------|
B|----------------------------|
G|----------------------------|
D|----11---9---7--------------|
A|----11---9---7--------------|
D|----11---9---7--------------|



Guitar 1

e|-----------------------12----------|
B|------9-10-9------9-10-------------|
G|9-11---------9-11---------9-11-13--|
D|-----------------------------------|x 4
A|-----------------------------------|
D|-----------------------------------|


Guitar 2

e|-----------------------------|
B|-----------------------------|
G|-----------------------------|
D|----11---9---7---9-----------|
A|----11---9---7---9-----------|
D|----11---9---7---9-----------|


VERSE

Guitar 1

e|-----------------------------------|
B|-----9-------9-------9-------9-----| x2
G|9-11----9-11----9-11----9-11-------|
D|-----------------------------------|
A|-----------------------------------|
D|-----------------------------------|

e|-----------------------------------|
B|-----12-------12------12--------12-|      x2
G|-8-9-------8-9-----8-9------8-9----|
D|-----------------------------------|
A|-----------------------------------|
D|-----------------------------------|

Guitar 2

     Pm..............
e|-----------------------------|
B|-----------------------------|
G|-----------------------------|
D|----11---9---7---9-----------|        
A|----11---9---7---9-----------|
D|----11---9---7---9-----------|




PRE-CHORUS

Guitar 1

e|-----------------------------------|
B|-----------------------------------|
G|-8h9-x8--9h11-x8--8h9-x8--9h11-x8--|
D|-----------------------------------|
A|-----------------------------------|
D|-----------------------------------|


Guitar 2

e|-----------------------------------|
B|-----------------------------------|
G|-----------------------------------|
D|--4h6-x8--6h7-x8--4h6-x8--6h7-x8---|
A|-----------------------------------|
D|-----------------------------------|


CHORUS
E|--------------------------------|
B|--------------------------------|
G|--------------------------------|
D|-2-----9-----7------2------4----|
A|-2-x8--9-x8—-7-x8---2-x4---4-x4-|
D|-2-----9-----7------2------4----|



Bridge

Guitar 1

e|---------------------------------------------------------------------|
B|--9---9-7----9---9-7----9---9-7-----9---9-10-------------------------|
G|----9----------9----------9-----------9--------9-9-9-9-9-9-9-9-9-----|
D|---------------------------------------------------------------------|
A|---------------------------------------------------------------------|
D|---------------------------------------------------------------------|



And there we go, Have a good one

God Bless

~Destamoon
Добавлено: 10.03.2012
Другие материалы по этой песне:
  • Аккорды и текст

Страница создана 10.03.2012
http://primanota.ru/mumsdollar/a-biography-chords.htm
Привет, Гость.
Предлагаем пройти революционный курс по гитаре.
Подарок от PrimaNota.Ru, забирай!