PrimaNota.ru - самый крупный в мире бесплатный архив песенных текстов, аккордов, табулатур и нот


Мумий тролль - На яды - аккорды и текст, видео

Регистрация Запомнить меня
Войти через:  Facebook Google Twitter Vk Yandex Mail.ru

Мумий тролль - На яды - аккорды и текст, видео

Печатать
Просмотров: 332
На яды
Мумий тролль
Verse:
            __3__             __3__             __3__             __3__
G-----------------------5| GU
D-----------7|(7)-(7)-7-------7|(7)-(7)-7-------3| IT
A|-7--(7)-7-------7|(7)-(7)-7-------5|(5)--3--0---3-0-5|(5)--3--0---3-0--| AR
E|-5---3--0---3-0-5|(5)--3--0---3-0--------------|
   | | | |  | | /   | | | |  | | /   | | | |  | | /   | | | |  | | /
A-----------5|-----3--0---3-0-5|-----3--0---3-0-8| BA
E|-5---3--0---3-0-5|-----3--0---3-0--------------| SS

                                        __3_--3-__3_---3--__3_--3-__3_
E|[3]-[3]-[3]-[3]--|[3]-[3]-[3]------|-3-3-3-3-3-3-3-3-------|
B------------|-3-3-3-3-3-3-3-3-------| GU
G|(5)--5---5---5---|-5---5---5-------|-4-4-4-4-4-4-4-4-------| IT
D|(3)--2---0-------|-2---0-----------------|-9-9-9-9-9-9-9-9-| AR
A--3---|---------3---2---------|-7-7-7-7-7-7-7-7-|
   | | | | | | | |   | | | | | | | |   | | | | | | | |   | | | | | | | |
A|-----7---5---3---|-7---5---3---2---------------| BA
E------------|-3-3-3-3-3-3-3-3-|-0-0-0-0-0-0-0-0-| SS

                       Am         Am
  На последней, на последней остановке
        D           D
  Не заметит нас водитель
       F           F
  Потерявший оба глаза
           G           Em
  В перестрелке расплатиться
          Am           Am
  Нужно все же нежный город
       D              D
  Обесточить плавно платья
        F            F
  Мне еще успеть на катер
        G           Em
  И принять по 300 капель

Coda:
  __3__ _3_ _3_
G------| GU
D|7b999-999-999-9r7| IT     w/wah
A------| AR
   | | | | | | | |

Chorus:

G|b9-------9---9---|-9-------7----b--|-9-------9---9---|-9-------7----b--|
D------------------------|
   | | | | | | | |   | | | | | | | |   | | | | | | | |   | | | | | | | |    X2
A|-0-------3---5---|-0---------------|-0-------3---5---|-0---------------|
E------|---------3---2---------|---------3---2---|

   | | | | | | | |   | | | | | | | |   | | | | | | | |   | | | | | | | |
A------------------------|
E|-3---3---3---3-5-|-----5---5---5---|-3---3---3---3-0-|-----0---0-------|

   | | | | | | | |
A------|
E|(0)--------------|

  Перепроверю на яды а еще тем что рядом проверяю тебя
  А ведь я еще рядом не устану на яд проверяю тебя
G                  Am
  Ты уходишь на штрассы
G               E
  Ты уходишь на ааа
E            Am
  Теперь на марсы

Solo:
   Am                Dm                Dm                G
E--------------------3---|
B---5-|-----6-6-----5-6-|-----5-6-----5-3-------|
G|-2-----2-5-------------------------|
   | | | | | | | |   | | | | | | | |   | | | | | | | |   | | | | | | | |
A------|-5-5-----5-------|-5-------------5-------|
E|-5-----5-5-------------------|-3-------3-------|

   G                 E                 E                 Am
E|-7p5-----5---3---------------------|
B----5-------|555-555-555-7p5/1------|
G------------------|-2---------------|
   | | | | | | | |   | | | | | | | |   | | | | | | | |   | | | | | | | |
A------------------------|
E|-3-------3-------|-0---------------|(0)--------------------|

Verse:
            __3__             __3__             __3__             __3__
G------------------------| GU
D------------------------| IT
A|-7--(7)-7-------7|(7)-(7)-7-------7|(7)-(7)-7-------7|(7)-(7)-7-------5| AR
E|-5---3--0---3-0-5|(5)--3--0---3-0-5|(5)--3--0---3-0-5|(5)--3--0---3-0-3|
   | | | |  | | /   | | | |  | | /   | | | |  | | /   | | | |  | | /
A-----------5|-----3--0---3-0-5|-----3--0---3-0-8| BA
E|-5---3--0---3-0-5|-----3--0---3-0--------------| SS

A-----------5|-----3--0---3-0-5|-----3--0---3-0-8| BA
E|-5---3--0---3-0-5|-----3--0---3-0--------------| SS
   | | | |  | | /   | | | |  | | /   | | | |  | | /   | | | |  | | /

G------------------------| GU
D|(3)--2---0-------|-2---0-----------------------| IT
A--3---|---------3---2---|-3---------------|-0---------------| AR
   | | | | | | | |   | | | | | | | |   | | | | | | | |   | | | | | | | |
A|-----7---5---3---|-7---5---3---2---------------| BA
E------------|-3-3-3-3-3-3-3-3-|-0-0-0-0-0-0-0-0-| SS

                        Am         Am
  Мой последний мой последний понедельник
           D            D
  Твой последний будет тоже
         F            F         G         Em
  И слегка чудной прохожий оборвет фуникулеры
             Am         Am
  Вдрызг расколоты пластинки
          D          D
  После всех моих историй
       F          F            G             Em
  Поцелую тебя в сердце - это денег мне не стоит

Coda
Chorus  (на тон выше)

Добавлено: 18.04.2012
Другие материалы по этой песне:
  • Аккорды и текст

Страница создана 18.04.2012
http://primanota.ru/mumii-troll/na-yady-chords.htm
Привет, Гость.
Предлагаем пройти революционный курс по гитаре.
Подарок от PrimaNota.Ru, забирай!