PrimaNota.ru - самый крупный в мире бесплатный архив песенных текстов, аккордов, табулатур и нот


Мумий тролль - +28 - аккорды и текст, видео

Регистрация Запомнить меня
Войти через:  Facebook Google Twitter Vk Yandex Mail.ru

Мумий тролль - +28 - аккорды и текст, видео

Печатать
Просмотров: 326
+28
Мумий тролль
Intro
Riff1:
             E                  A                  F#m
e----------------------------------------------------------|
B----------------------------------------------------------|
G----------------------------------------------------------|
D|-----2--4--6----6--4h6p4h6----4--6-6--4h6p4h6----4--6-6--4h6-7--6----|
A|--2----------------------------------------------------------------7-|
E----------------------------------------------------------|

Verse1: (весь куплет в три аккорда)
E           A         F#m
Когда даже ночью плюс 28
Ну что еще скинуть, что снять?
Да и некуда бросить.
Когда все закипает от одной мне улыбки,
А мысли так быстры, как скорость улитки.

Chorus: (еще проще - в два аккорда)
Riff1 x2
E            A
Ты наверное шутишь,
Шутишь наверное,
Бросаешь мне плавки в лицо,
Как будто рвешь себе вены.
Riff2
Ты наверное шутишь,
Или голову мутишь
Мне.

Verse2:
Отлежаться и осмотреться, как упали кометы.
Мимо сердца и мимо кармана, и мимо конверта.
Как желания издеваются сыпят копейками
Прячутся и уползают змейками

Chorus:
Ты наверное шутишь,
Шутишь наверное,
Бросаешь мне плавки в лицо,
Как будто рвешь себе вены.
Ты наверное шутишь,
Или голову мутишь
Мне.

Chorus
Сдается стекло здесь ты смотри осторожней
Передай своей маме что ее полюбил бы я тоже :)
Ты наверное шутишь в кустах притаившися
    E         E7     A
Добежим до фонтана
  AmC
Пожалуйста!
    E         E7     A
Добежим до фонтана
  AmC
Пожалуйста!

Riff1    x4
E A F#m  x4
______________________________________________________________________
Riff2                                                        ?
e---------------------------------------------
B------------------------------4--5--7----7-5-
G---------------------------------------------
D|-----2--46--4--4-----4--2--2--|-----2--46--4--4-------------------
A|--0----------------------------|--0---------------------------------
E---------------------------------------------
                 E
-------------------|
-------------------|
-------------------|
-------------------|
--0--2--4--2--0----|
-------------------|

Там, где стоит ? - написано не верно (в оригинале по-другому),
ну не смог я подобрать, но так как написано, вписывается в тему.

Chords used:
    E    A   F#m   E7  AmC
e|--0----0----2----0----0----|
B|--0----2----2----0----1----|
G|--1----2----2----1----2----|
D|--2----2----4----0----2----|
A|--2----0----4----2----3----|
E|--0----0----2----0----0----|

VIVA EL ROCKAPOPS!!!
Добавлено: 10.04.2012
Другие материалы по этой песне:
  • Аккорды и текст

Страница создана 05.03.2012
http://primanota.ru/mumii-troll/28-chords.htm
Привет, Гость.
Предлагаем пройти революционный курс по гитаре.
Подарок от PrimaNota.Ru, забирай!