PrimaNota.ru - самый крупный в мире бесплатный архив песенных текстов, аккордов, табулатур и нот


Mumford & Sons - Hold On To What You Believe - аккорды и текст, таба, видео

Регистрация Запомнить меня
Войти через:  Facebook Google Twitter Vk Yandex Mail.ru

Mumford & Sons - Hold On To What You Believe - аккорды и текст, таба, видео

Печатать
Просмотров: 207
Hold On To What You Believe
Mumford & Sons
Hold on to what you what you believe

Intro:     Am

Verse

Am            G    Gsus              C

||-------3-------------0----------------------|
||-------0-0p1---------1----------------------|
||-------0-------------0----------------------|
||-------0-------------0p2--------------------|
||-------2-0p2---------3----------------------|
||-------3------------------------------------|


Verse
Am	G                      C
I,  I can't promise you that I won't let you down
Am
And I,
                  G				          	C
I can't promise you that I will be the only one around
G	              C
When your hope falls down

But we're young
Open flowers in the windy fields of this war-torn world
And love
This city breathes the plague of loving things more than their creators

break

        Am      	          C		G      
||---0------------------------------------|
||---1----------s--3--5-------------------|
||---2------------------------------------|
||---2----------s--5--5-------------------|
||---0--2--3----s--5--5-------------------|
||----------------------------------------|


I ran away
I could not take the burden of both me and you
It was too fast
Casting love on me as if it were a spell I could not break
When it was a promise I could not make

Em          C          G
But what if I was wrong?     3x

Am          G               C      Am      G          C
But hold on to what you believe    in the light
     Am   	  G             C                    G let ring out
When the darkness has robbed you of all your sight


Break

     Am              C		G      	C	    Am	G
||---0--------------------------------------------------------|
||---1----------s--3--5------------------1--------------------|
||---2-----------------------------------0--------------------|
||---2----------s--5--5------------------2--------------------|
||---0--2--3----s--5--5------------------3--2--0--------------|
||------------------------------------------------------------|

     Am         C	         G
||---0------------------------|
||---1----------s--3--5-------|
||---2------------------------|
||---2----------s--5--5-------|
||---0--2--3----s--5--5-------|
||----------------------------|



And now this land
Means less and less to me without you breathing through its trees
At every turn
The water runs away from me and the halo disappears
And the hole when you're not near

So what if I was wrong?

But hold on to what you believe in the light
When the darkness has robbed you of all your sight

So hold on to what you believed in the light



Добавлено: 16.10.2013
Другие материалы по этой песне:
  • Аккорды и текст

Страница создана 16.09.2013
http://primanota.ru/mumford-and-sons/hold-on-to-what-you-believe-chords.htm
Привет, Гость.
Предлагаем пройти революционный курс по гитаре.
Подарок от PrimaNota.Ru, забирай!