PrimaNota.ru - самый крупный в мире бесплатный архив песенных текстов, аккордов, табулатур и нот


Mumford & Sons - Ghosts - таба, видео

Регистрация Запомнить меня
Войти через:  Facebook Google Twitter Vk Yandex Mail.ru

Mumford & Sons - Ghosts - таба, видео

Печатать
Просмотров: 128
Capo 5!

IF YOU WANT TO PLAY THE SONG EXACTLY LIKE MARCUS MUMFORD THEN THIS IS THE TAB FOR YOU!

Listen to song for finger picking pattern. It goes somewhat like this:

Finger-Picking Pattern: (for intro/verses)
E|--------------|
B|-----------0--|
G|-----0--------|
D|--------------|
A|--------------|
E|--0-----0-----|

Finger-picking for (pre-chorus/interlude)
E|--------------|
B|--------------|
G|-----------0--|
D|-----0--------|
A|--------------|
E|--0-----0-----|

Intro:
E|-----|-----|------|------|-----|-----|
B|--4--|--7--|--12--|--11--|--9--|--4--|
G|-----|-----|------|------|-----|-----|
D|-----|-----|------|------|-----|-----|
A|-----|-----|------|------|-----|-----|
E|--3--|--7--|--12--|--10--|--8--|--3--|

Verse1:
E|-----|-----|------|------|-----|-----|
B|--4--|--7--|--12--|--11--|--9--|--4--|
G|-----|-----|------|------|-----|-----|
D|-----|-----|------|------|-----|-----|
A|-----|-----|------|------|-----|-----|
E|--3--|--7--|--12--|--10--|--8--|--3--|

You saw my pain, washed out in the rain
Broken glass, saw the blood run from my veins
But you saw no fault no crack in my heart
And you kneel beside my hope torn apart


Pre-chorus:
E|-----|-----|-----|-----|-----|-----|-----|
B|-----|-----|-----|-----|-----|-----|-----|--0h1-|
G|--2--|-----|--2--|-----|-----|--2--|-----|
D|--1--|--2--|--1--|--2--|-----|-----|-----|
A|--2--|--2--|--2--|--2--|-----|-----|-----|
E|-----|-----|-----|-----|--3--|--2--|--3--|

But the ghosts that we knew will flicker from you
And we'll live a long life


Chorus: (pluck strings)
E|-----|-----|-----|-----|-----|-----|-----|
B|--1--|-----|-----|-----|--1--|-----|-----|
G|--0--|--0--|--2--|--0--|--0--|--0--|--2--|
D|-----|--0--|--0--|--0--|-----|--0--|--0--|
A|--3--|-----|--x--|-----|--3--|-----|--x--|
E|--x--|--3--|--2--|--3--|--x--|--3--|--2--|

So give me hope in the darkness that I will see the light
Cause oh that gave me such a fright

E|-----|-----|-----|-----|-----|-----|
B|-----|-----|--1--|-----|--1--|-----|
G|--0--|--2--|--2--|--0--|--2--|--2--|
D|--2--|--0--|-----|-----|-----|--0--|
A|--2--|-----|--3--|-----|--3--|-----|
E|-----|--2--|--x--|--3--|--x--|--2--|

But I will hold as long as you like
Just promise me we'll be alright


Interlude:
E|-----|-----|-----|-----|
B|-----|-----|-----|-----|
G|-----|-----|-----|--2--|
D|--2--|-----|--2--|-----|
A|--2--|-----|--2--|-----|
E|-----|--3--|-----|--2--|


Verse 2:
E|-----|-----|------|------|-----|-----|
B|--4--|--7--|--12--|--11--|--9--|--4--|
G|-----|-----|------|------|-----|-----|
D|-----|-----|------|------|-----|-----|
A|-----|-----|------|------|-----|-----|
E|--3--|--7--|--12--|--10--|--8--|--3--|

So lead me back
Turn south from that place
And close my eyes from my recent disgrace
Cause you know my call
We'll share my all
Now children come and they will hear me roar

E|-----|-----|-----|-----|-----|-----|-----|
B|--1--|--0--|--0--|--0--|--1--|--0--|-----|
G|--0--|--0--|--2--|--0--|--0--|--0--|--2--|
D|--2--|-----|-----|-----|--2--|-----|--0--|
A|--3--|-----|--x--|-----|--3--|-----|--x--|
E|--x--|--3--|--2--|--3--|--x--|--3--|--2--|

So give me hope in the darkness that I will see the light
Cause oh that gave me such a fright

E|-----|-----|-----|-----|-----|-----|
B|-----|-----|--1--|-----|--1--|-----|
G|-----|--2--|--2--|-----|--2--|--2--|
D|--2--|-----|-----|-----|-----|-----|
A|--2--|-----|--3--|-----|--3--|-----|
E|-----|--2--|--x--|--3--|--x--|--2--|

But I will hold as long as you like
Just promise me that we'll be alright

Pre-Bridge: (x2) (start strumming)
E|-----|-----|--3--|
B|-----|--1--|-----|
G|-----|--2--|-----|
D|--2--|-----|-----|
A|--2--|--3--|--2--|
E|-----|--x--|--3--|

Bridge: (x2)
E|-----|-----|--3--|
B|-----|--1--|-----|
G|-----|--2--|-----|
D|--2--|-----|-----|
A|--2--|--3--|--2--|
E|-----|-----|--3--|

But hold me still bury my heart on the cold
And hold me still bury my heart on the cold

Chorus:
E|-----|--3--|-----|--3--|-----|--3--|-----|
B|--1--|-----|-----|-----|--1--|-----|-----|
G|--0--|-----|--2--|-----|--0--|-----|--2--|
D|--2--|-----|-----|-----|--2--|-----|-----|
A|--3--|--2--|--x--|--2--|--3--|--2--|--x--|
E|--x--|--3--|--2--|--3--|--x--|--3--|--2--|

So give me hope in the darkness that I will see the light
Cause oh that gave me such a fright

E|-----|-----|-----|--3--|-----|-----|
B|-----|-----|--1--|-----|--1--|-----|
G|-----|--2--|--2--|-----|--2--|--2--|
D|--2--|-----|-----|-----|-----|-----|
A|--2--|-----|--3--|--2--|--3--|-----|
E|-----|--2--|--x--|--3--|--x--|--2--|

But I will hold on as long as you like
Just promise me that we'll be alright

Post-chorus: (pluck strings)
E|-----|-----|-----|-----|-----|
B|-----|-----|-----|-----|-----|
G|--2--|-----|-----|--2--|-----|
D|--1--|--2--|-----|-----|-----|
A|--2--|--2--|-----|-----|-----|
E|-----|-----|--3--|--2--|--3--|

But the ghosts that we knew will flicker from you
And we'll live a long life

No go and rock this amazing song!
Добавлено: 02.08.2013
Другие материалы по этой песне:
  • Аккорды и текст

Страница создана 02.08.2013
http://primanota.ru/mumford-and-sons/ghosts-chords.htm
Привет, Гость.
Предлагаем пройти революционный курс по гитаре.
Подарок от PrimaNota.Ru, забирай!