PrimaNota.ru - самый крупный в мире бесплатный архив песенных текстов, аккордов, табулатур и нот


Mumford & Sons - Ghost That We Knew - таба, видео

Регистрация Запомнить меня
Войти через:  Facebook Google Twitter Vk Yandex Mail.ru

Mumford & Sons - Ghost That We Knew - таба, видео

Печатать
Просмотров: 129
I saw another tab on here and decided to improve on it a bit. 

This is my first tab so please point out any mistakes. 

Basic Finger-picking for entire song (unless tab says otherwise.)
E|--------------|
B|--------------|
G|-----------0--|
D|-----0--------|
A|--------------|
E|--0-----0-----|

Intro:
E|-----|-----|------|------|-----|-----|
B|-----|-----|------|------|-----|-----|
G|--4--|--7--|--12--|--11--|--9--|--4--|
D|--0--|--0--|--0---|--0---|--0--|--0--|
A|-----|-----|------|------|-----|-----|
E|--3--|--7--|--12--|--10--|--8--|--3--|

Verse:

Intro:
E|-----|-----|------|------|-----|-----|
B|-----|-----|------|------|-----|-----|
G|--4--|--7--|--12--|--11--|--9--|--4--|
D|--0--|--0--|--0---|--0---|--0--|--0--|
A|-----|-----|------|------|-----|-----|
E|--3--|--7--|--12--|--10--|--8--|--3--|

Pre-chorus:
E|-----|-----|-----|-----|-----|-----|-----|
B|-----|-----|-----|-----|-----|-----|-----|--0h1-||--1p0-|
G|--2--|--0--|--2--|--0--|--0--|--2--|--0--|
D|--1--|--2--|--1--|--2--|--0--|--0--|--0--|
A|-----|-----|-----|-----|-----|-----|-----|
E|--0--|--0--|--0--|--0--|--3--|--2--|--3--|

But the ghosts that we knew will flicker from you
And we'll live a long life

Chorus: (pluck strings)
E|-----|-----|-----|-----|-----|-----|-----|
B|--1--|-----|-----|-----|--1--|-----|-----|
G|--0--|--0--|--2--|--0--|--0--|--0--|--2--|
D|-----|--0--|--0--|--0--|-----|--0--|--0--|
A|--3--|-----|-----|-----|--3--|-----|-----|
E|-----|--3--|--2--|--3--|-----|--3--|--2--|

So give me hope in the darkness that I will see the light
Cause oh that gave me such a fright










E|-----|-----|-----|-----|-----|-----|
B|-----|-----|--1--|-----|--1--|-----|
G|--0--|--2--|--2--|--0--|--2--|--2--|
D|--2--|--0--|-----|--0--|-----|--0--|
A|--2--|-----|--3--|-----|--3--|-----|
E|-----|--2--|-----|--3--|-----|--2--|

But I will hold as long as you like
Just promise me we'll be alright


Interlude:
E|-----|-----|-----|-----|
B|-----|-----|-----|-----|
G|--0--|--0--|--0--|--2--|
D|--2--|--0--|--2--|--0--|
A|-----|-----|-----|-----|
E|--0--|--3--|--0--|--2--|



Chorus: (pick strings)
E|-----|-----|-----|-----|-----|-----|-----|
B|--1--|--0--|--0--|--0--|--1--|--0--|-----|
G|--0--|--0--|--2--|--0--|--0--|--0--|--2--|
D|-----|-----|-----|-----|-----|-----|--0--|
A|--3--|-----|-----|-----|--3--|-----|-----|
E|-----|--3--|--2--|--3--|-----|--3--|--2--|

E|-----|-----|-----|-----|-----|-----|
B|-----|-----|--1--|--0--|--1--|-----|
G|--0--|--2--|--2--|--0--|--2--|--2--|
D|--2--|--0--|-----|-----|-----|--0--|
A|--2--|-----|--3--|-----|--3--|-----|
E|-----|--2--|-----|--3--|-----|--2--|

Pre-Bridge: (x2) (strumming through the rest of the song)
   Em     C     G
E|--0--|--0--|--3--|
B|--0--|--1--|--0--|
G|--0--|--2--|--0--|
D|--2--|--0--|--0--|
A|--2--|--3--|--2--|
E|--0--|--0--|--3--|



Bridge: (x2
   Em     C     G
E|--0--|--0--|--3--|
B|--0--|--1--|--0--|
G|--0--|--2--|--0--|
D|--2--|--0--|--0--|
A|--2--|--3--|--2--|
E|--0--|--0--|--3--|


Em                   C                       G
   But hold me still bury my heart on the cold
   And hold me still bury my heart on the cold


Chorus:

    C     G     D
E|--0--|--3--|--0--|
B|--1--|--0--|--0--|
G|--0--|--0--|--2--|
D|--2--|--0--|--0--|
A|--3--|--2--|--0--|
E|--0--|--3--|--2--|

G                  C           G               D            G
	So give me hope in the darkness that I will see the light
              C       G              D       	
	Cause oh that gave me such a fright




   Em     D     C     G
E|--0--|--0--|--0--|--3--|
B|--0--|--0--|--1--|--0--|
G|--0--|--2--|--2--|--0--|
D|--2--|--0--|--0--|--0--|
A|--2--|--0--|--3--|--2--|
E|--0--|--2--|--0--|--3--|


    Em     D          C           G
But I will hold on as long as you like
     C          D              G
Just promise me we'll be alright



Post-chorus: (pluck strings)
E|-----|-----|-----|-----|-----|-----|-----|
B|-----|-----|-----|-----|-----|-----|-----|
G|--2--|-----|--2--|-----|-----|--2--|-----|
D|--1--|--2--|--1--|--2--|-----|-----|-----|
A|--2--|--2--|--2--|--2--|-----|-----|-----|
E|-----|-----|-----|-----|--3--|--2--|--3--|

But the ghosts that we knew will flicker from you
And we'll live a long life
Добавлено: 03.12.2013
Другие материалы по этой песне:
  • Аккорды и текст

Страница создана 03.12.2013
http://primanota.ru/mumford-and-sons/ghost-that-we-knew-chords.htm
Привет, Гость.
Предлагаем пройти революционный курс по гитаре.
Подарок от PrimaNota.Ru, забирай!