PrimaNota.ru - самый крупный в мире бесплатный архив песенных текстов, аккордов, табулатур и нот


Mullmuzzler - Tell Me - текст песни, таба, видео

Регистрация Запомнить меня
Войти через:  Facebook Google Twitter Vk Yandex Mail.ru

Mullmuzzler - Tell Me - текст песни, таба, видео

Печатать
Просмотров: 122
James LaBrie's Mullmuzzler - "Tell Me"
Off of the 2001 album "Mullmuzzler 2"
Transcribed by imspazzen

Tuning: 7 string down 1 step (A D G C F A D)
(can also be played with a 6 string tuned to A)

Note: The bars aren't necessarily reflective of the time signature; I just used them
as a device to make it easier to read.

{[Intro]}
   w/wah
D|-----------------|-------------------|---------------|-----------------|
A|-----------------|-------------------|---------------|-----------------|
F|-----------------|-------------------|---------------|-----------------|
C|-----------------|-------------------|---------------|-----------------|
G|-----------------|-------------------|---------------|-----------------|
D|-----1---------1-|-----1---------0-1-|-------------1-|-----1---------0-|
A|-1-4---1-4-1-4---|-1-4---1-4-1-4-----|-1-4-1-4-1-4---|-1-4---1-4-1-4---|
   * * * * * * * *   * * * * * * * * *   * * * * * * *   * * * * * * * *

   keyboard enters                    x6
D||------------------|------------------||
A||------------------|------------------||
F||------------------|------------------||
C||*-----------------|-----------------*||
G||*-----------------|-----------------*||
D||--1-------------1-|-2---1---------0--||
A||----1-4-1-4-1-4---|---4---1-4-1-4----||
     * * * * * * * *   * * * * * * * *


D||--------------------------|--------------------------|
A||--------------------------|--------------------------|
F||--------------------------|--------------------------|
C||*-------------------------|--------------------------|
G||*-9-7-9--7-9--7-9--7-9--7-|-7--5-7--5-7--5-7--5-7--5-|
D||--7-5-7--5-7--5-7--5-7--5-|-5--3-5--3-5--3-5--3-5--3-|
A||--------------------------|--------------------------|
    slight palm mute throughout this riff
                              _________________________________
                             | 1.
D|---------------------------|---------------------------------||
A|---------------------------|---------------------------------||
F|---------------------------|---------------------------------||
C|---------------------------|--------------------------------*||
G|-5--4-5--5-5---------------|-9--7-9--7-9--7-9--7-9----------*||
D|-3--2-3--3-3-7\--5-7--5-7--|-7--5-7--5-7--5-7--5-7-----------||
A|-------------5\--3-5--3-5--|------------------------0-0-0-0--||
  _____________________________
 | 2.
D|-----------------------------|
A|-----------------------------|
F|-----------------------------|
C|-----------------------------|
G|-9--7-9--7-9--7-9--7-9--7-9--|
D|-7--5-7--5-7--5-7--5-7--5-7--|
A|-----------------------------|


{[Verse 1]}

D|--------------------|---------------|----------------------|-----------------|
A|--------------------|---------------|----------------------|-----------------|
F|--------------------|---------------|----------------------|-----------------|
C|--------------------|---------------|----------------------|-----------------|
G|-7-9----------------|---------------|----------------------|-----------------|
D|-5-7--------5---5-7-|---------------|----------5---5---7---|-----------------|
A|----------0-3-0-3-5-|---------------|-0------0-3-0-3-0-5---|---0-------------|
            * * * *                            * * * * *

D|-------------------|----------------|-----------------|---------------|
A|-------------------|----------------|-----------------|---------------|
F|-------------------|----------------|-----------------|---------------|
C|-------------------|----------------|-----------------|---------------|
G|-9\----------------|----------------|-----------------|---------------|
D|-7\--------5---5-7-|----------------|---------5---5-7-|---------------|
A|---------0-3-0-3-5-|----------------|-0-----0-3-0-3-5-|---0-----------|
           * * * *                            * * * *

{[Pre-Chorus 1]}
D|------------|-------------|---------------|-------------|
A|------------|-------------|---------------|-------------|
F|------------|-------------|---------------|-------------|
C|------------|-------------|---------------|-------------|
G|-7----------|-2-----------|-9-------------|-------------|
D|-5----------|-2-----------|-9------9-9-9\-|-------------|
A|-5------0-0-|-0-----------|-7------7-7-7\-|-------------|
                                     * *

{[Chorus 1]}
   same as before with slightly different endings
D||--------------------------|--------------------------|
A||--------------------------|--------------------------|
F||--------------------------|--------------------------|
C||*-------------------------|--------------------------|
G||*-9-7-9--7-9--7-9--7-9--7-|-7--5-7--5-7--5-7--5-7--5-|
D||--7-5-7--5-7--5-7--5-7--5-|-5--3-5--3-5--3-5--3-5--3-|
A||--------------------------|--------------------------|

                              _________________________________
                             | 1.
D|---------------------------|------------------------------||
A|---------------------------|------------------------------||
F|---------------------------|------------------------------||
C|---------------------------|-----------------------------*||
G|-5--4-5--5-5---------------|-9--7-9--7-9--7-9--7-9-------*||
D|-3--2-3--3-3-7\--5-7--5-7--|-7--5-7--5-7--5-7--5-7--------||
A|-------------5\--3-5--3-5--|-------------------------0----||
  __________________________
 | 2.
D|---------------------------|-------------|-------------|-----------|
A|---------------------------|-------------|-------------|-----------|
F|---------------------------|-------------|-------------|-----------|
C|---------------------------|-------------|-------------|-----------|
G|-9--7-9--7-9--7-9--7-9--7-9|(9)\---------|-------------|-----------|
D|-7--5-7--5-7--5-7--5-7--5-7|(7)\---------|-------------|-----------|
A|---------------------------|-------------|-------------|-----------|
 |
D|---------------------------|-------------|-------------|-----------|
A|---------------------------|-------------|-------------|-----------|
F|---------------------------|-------------|-------------|-----------|
C|---------------------------|-------------|-------------|-----------|
G|---------------------------|-------------|-------------|-----------|
D|---------------------------|-0-3-5-0-3-0-|-0-3-5-0-3-0-|-0-3-0-3-5-|
A|---------------------------|-0-3-5-0-3-0-|-0-3-5-0-3-0-|-0-3-0-3-5-|
                              * * * * * *   * * * * * *   * * * * *

{[Verse 2]}                 ______________  _____________
                           | 1.            | 2.
D||------------------------|--------------||-------------|
A||------------------------|--------------||-------------|
F||------------------------|--------------||-------------|
C||*-----------------------|-------------*||-------------| Play this entire line twice
G||*-----------------------|-------------*||-------------|   (on the last repeat
D||----------------5---5-7-|--------------||-------------|        don't palm mute) 
A||--0-----------0-3-0-3-5-|--------------||---0---------|
                 * * * *

{[Pre-Chorus 2]}
D|------------|-------------|---------------|-------------|
A|------------|-------------|---------------|-------------|
F|------------|-------------|---------------|-------------|
C|------------|-------------|---------------|-------------|
G|-7----------|-2-----------|-9--9----------|-------------|
D|-5----------|-2-----------|-9--9-----9-9\-|-------------|
A|-5------0-0-|-0-------0-0-|-7--7-----7-7\-|-------------|


{[Chorus 2]}
   same as 1st Chorus
D||--------------------------|--------------------------|
A||--------------------------|--------------------------|
F||--------------------------|--------------------------|
C||*-------------------------|--------------------------|
G||*-9-7-9--7-9--7-9--7-9--7-|-7--5-7--5-7--5-7--5-7--5-|
D||--7-5-7--5-7--5-7--5-7--5-|-5--3-5--3-5--3-5--3-5--3-|
A||--------------------------|--------------------------|

                              _________________________________
                             | 1.
D|---------------------------|------------------------------||
A|---------------------------|------------------------------||
F|---------------------------|------------------------------||
C|---------------------------|-----------------------------*||
G|-5--4-5--5-5---------------|-9--7-9--7-9--7-9--7-9-------*||
D|-3--2-3--3-3-7\--5-7--5-7--|-7--5-7--5-7--5-7--5-7--------||
A|-------------5\--3-5--3-5--|-------------------------0----||
  __________________________
 | 2.
D|--------------------------|
A|--------------------------|
F|--------------------------|
C|--------------------------|
G|-9--7-9--7-9--7-9--7-9--7-|
D|-7--5-7--5-7--5-7--5-7--5-|
A|--------------------------|


{[Bridge]}
D|-------------------------|---------------------------|
A|-------------------------|---------------------------|
F|-------------------------|---------------------------|
C|-------------------------|---------------------------|
G|-9-----------------------|---------------------------|
D|-7-----------------------|---------------------------|
A|-------------------------|---------------------------|
 |
 | clean tone
D|-------------------------|---------------------------|
A|-------------------------|---------7-----------------|
F|---7-7-9-7-8---7-7-9-7-8-|---7-7-----10-9-7---9-10-9-|
C|-8-----------8-----------|-8-----8----------8--------| 
G|-------------------------|---------------------------|
D|-------------------------|---------------------------|
A|-------------------------|---------------------------|
   * * * * * * * * * * * *   * * * * * *  * * * * *  *  (light mute)

D||---------------------------||----------------------------||
A||---------------------------||----------------------------||
F||----4-4-6-4-5-4---4-6-7-6--||----7-7-9-7-8-7---7-9-10-9--||
C||*-5-------------5---------*||*-8-------------8----------*||
G||*-------------------------*||*--------------------------*||
D||---------------------------||----------------------------||
A||---------------------------||----------------------------||
     * * * * * * * * * * * *      * * * * * * * * * * *  *

D||---------------------------------------||----------------------------||
A||---------------------------------------||----------------------------||
F||-----11-11-13-11-12-11----11-13-14-13--||----7-7-9-7-8-7---7-9-10-9--||
C||*-12-------------------12-------------*||*-8-------------8----------*||
G||*-------------------------------------*||*--------------------------*||
D||---------------------------------------||----------------------------||
A||---------------------------------------||----------------------------||
     *  *  *  *  *  *  *  *  *  *  *  *       * * * * * * * * * * *  *

D||---------------------------||--------------------------|--------------------------|
A||---------------------------||-------------------7------|--------------------------|
F||----4-4-6-4-5-4---4-6-7-6--||---7-7-9-7-8---7-7---10-9-|---7-7-9-7-8-7---7-9-10-9-|
C||*-5-------------5---------*||-8-----------8------------|-8-------------8----------|
G||*-------------------------*||--------------------------|--------------------------|
D||---------------------------||--------------------------|--------------------------|
A||---------------------------||--------------------------|--------------------------|
     * * * * * * * * * * * *     * * * * * * * * * * *  *   * * * * * * * * * * *  *

D||---------------------------------------||
A||---------------------------------------||
F||-----11-11-13-11-12-11----11-13-14-13--||
C||*-12-------------------12-------------*||
G||*-------------------------------------*||
D||---------------------------------------||
A||---------------------------------------||
     *  *  *  *  *  *  *  *  *  *  *  *

  acoustic guitar                             
D|-3----3------x-3--x-x-3--x-x-|-5----5----5----5--x-x-|
A|-3----3------x-3--x-x-3--x-x-|-5----5----5----5--x-x-|
F|-4----4------x-4--x-x-4--x-x-|-6----6----6----6--x-x-| (don't accent the muted notes
C|-5----5------x-5--x-x-5--x-x-|-7----7----7----7--x-x-|   they're there mainly to emphasize
G|-5----5------x-5--x-x-5--x-x-|-7----7----7----7--x-x-|    the rhythmic feel)
D|-3----3------x-3--x-x-3--x-x-|-5----5----5----5--x-x-|
A|-----------------------------|-----------------------|
 "Lord, be the eyes..."

 
D|-3----3----3-x-x-3--3---x-x-|-3----3---3-x-x-3--3-x-x-|
A|-5----5----5-x-x-5--5---x-x-|-3----3---3-x-x-3--3-x-x-|
F|-4----4----4-x-x-4--4---x-x-|-4----4---4-x-x-4--4-x-x-|
C|-2----2----2-x-x-2--2---x-x-|-5----5---5-x-x-5--5-x-x-|
G|----------------------------|-5----5---5-x-x-5--5-x-x-|
D|----------------------------|-3----3---3-x-x-3--3-x-x-|
A|----------------------------|-------------------------|


{[Re-Intro]}
  dist. guitar w/wah                 x4
D||--------------------|----------------||
A||--------------------|----------------||
F||--------------------|----------------||
C||*-------------------|---------------*||
G||*-------------------|---------------*||
D||--------------------|----------------||
A||--0-3-5-0-3-0-3-4-6-|-0-3-0-3-0-3-5--||
     * * * * * * * * *   * * * * * * * 

*bass fill*

  "Poisoned by the words..."
D|------------|-------------|----------|---------|
A|------------|-------------|----------|---------|
F|------------|-------------|----------|---------|
C|-7--7-------|-------------|-4--------|---------|
G|-7--7-------|-------------|-4--------|---------|
D|-5--5-------|-0-----------|-2--------|---------|
A|------------|-0-----------|----------|---------|


{[Final Chorus]}
D||--------------------------|--------------------------|
A||--------------------------|--------------------------|
F||--------------------------|--------------------------|
C||*-------------------------|--------------------------|
G||*-9-7-9--7-9--7-9--7-9--7-|-7--5-7--5-7--5-7--5-7--5-|
D||--7-5-7--5-7--5-7--5-7--5-|-5--3-5--3-5--3-5--3-5--3-|
A||--------------------------|--------------------------|

                              _________________________________
                             | 1.
D|---------------------------|------------------------------||
A|---------------------------|------------------------------||
F|---------------------------|------------------------------||
C|---------------------------|-----------------------------*||
G|-5--4-5--5-5---------------|-9--7-9--7-9--7-9--7-9-------*||
D|-3--2-3--3-3-7\--5-7--5-7--|-7--5-7--5-7--5-7--5-7--------||
A|-------------5\--3-5--3-5--|-------------------------0----||
  __________________________
 | 2.
D|----------------------------|
A|----------------------------|
F|----------------------------|
C|----------------------------|  Play all of this 2 times (so a total of 4)
G|-9--7-9--7-9--7-9--7-9--7-9-|
D|-7--5-7--5-7--5-7--5-7--5-7-|
A|----------------------------|


[{Outro]}
  w/wah
D||---------------||---------|
A||---------------||---------|
F||---------------||---------|  Play this passage 5 times
C||*-------------*||---------|
G||*-------------*||---------|
D||--0-3-5-0-3-0--||-3-0-3-5-|
A||--0-3-5-0-3-0--||-3-0-3-5-|
     * * * * * *     * * * *   

then

D|-------------|---------||
A|-------------|---------||
F|-------------|---------||
C|-------------|---------||
G|-------------|---------||
D|-0-3-5-0-3-0-|-0-3-----||
A|-0-3-5-0-3-0-|-0-3-----||
   * * * * * *    
_________________________________________________
Thanks for viewing! Feel free to ask questions/leave corrections in the comments!

Tab Legend:
____________________
* = palm mute
\ = slide down
x = muted note
Добавлено: 06.10.2015
Другие материалы по этой песне:
  • Аккорды и текст

Страница создана 14.04.2012
http://primanota.ru/mullmuzzler/tell-me-chords.htm
Привет, Гость.
Предлагаем пройти революционный курс по гитаре.
Подарок от PrimaNota.Ru, забирай!