PrimaNota.ru - самый крупный в мире бесплатный архив песенных текстов, аккордов, табулатур и нот


Mullmuzzler - Statued - текст песни, таба, видео

Регистрация Запомнить меня
Войти через:  Facebook Google Twitter Vk Yandex Mail.ru

Mullmuzzler - Statued - текст песни, таба, видео

Печатать
Просмотров: 125
James LaBrie's Mullmuzzler - "Statued"
Off of the 1999 album "Keep It To Yourself"
Transcribed by imspazzen

Tuning: Drop C (low to high - CGCFAD)


{[Intro]}
D|--------------------------|
A|--------------------------|
F|--------------------------|_______ 
C|--------------------------|       |
G|-2--2-2--2-2--2--2-2--2-2-|       |
C|-2--2-2--2-2--2--2-2--2-2-|       |
 | *  * *  * *  *  * *  * *     Play 8 times
D|--------------------------|       |
A|--------------------------|       |
F|--------------------------|_______|
C|-2--2-2--2-2--2--2-2--2-2-|
G|--------------------------|
C|--------------------------|
 (I think these are harmonics)


{[Verse 1]}
   Piano arr. for guitar
D|-7----------0-|--------------|
A|-8------8-----|-0------------|
F|-9------7-----|----0-2-4-----|
C|-9------9-----|--------------|
G|-7------------|--------------|
C|--------------|--------------|


D|-7----------0-|--------------|
A|-8------8-----|-0------------|
F|-9------7-----|----0-2-------|
C|-9------9-----|--------2-----|
G|-7------------|--------------|
C|--------------|--------------|


{[Pre-Chorus 1]}
D|----------------|---------------|
A|----------------|---------------|
F|-4------5---9---|-7------5------|
C|-4------5---9---|-7------5------|
G|-2------3---7---|-5------3------|
C|----------------|---------------|

D|-----------------|-----------------|-----------------|-----------------|
A|-----------------|-----------------|-----------------|-----------------|
F|-----------------|-----------------|-----------------|-----------------|
C|-2-2-2-2-2-2-2-2-|-----------------|-----------------|-----------------|
G|-0-0-0-0-0-0-0-0-|-2-2-2-2-2-2-2-2-|-0-0-0-0-0-0-0-0-|-3-3-3-3-3-3-3-3-|
C|-----------------|-2-2-2-2-2-2-2-2-|-0-0-0-0-0-0-0-0-|-3-3-3-3-3-3-3-3-|
   * * * * * * *     * * *   * * * *   * * * * * * * *   * * * * * * * *

{[Chorus 1]}
   (Right speaker)
D||----------------------------------|-------------------------------|
A||----------------------------------|-------------------------------|
F||*---------------------------------|-------------------------------|
C||*-5--2-2-2-2-5p2-5--2-2-2-2-5p4p2-|-5--2-2-2-5p4p2-5--2-2-2-5p4p2-|
G||----------------------------------|-------------------------------|
C||----------------------------------|-------------------------------|
 ||(Left Speaker)
D||----------------------------------|-------------------------------|
A||----------------------------------|-------------------------------|
F||*---------------------------------|-------------------------------|
C||*---------------------------------|-------------------------------|
G||----------------------------------|-------------------------------|
C||--5--2-2-2-2-5p2-5--2-2-2-2-5p4p2-|-5--2-2-2-5p4p2-5--2-2-2-5p4p2-|


D|---------------------------------|--------------------------||
A|---------------------------------|--------------------------||
F|---------------------------------|-------------------------*||
C|-5h7-7-7-7-7-7-7-5h7-7-7-7-7-7-7-|-------------------------*||
G|---------------------------------|-5-5--5-5--5-5--5--5--5---||
C|---------------------------------|--------------------------||
 |
D|---------------------------------|--------------------------||
A|---------------------------------|--------------------------||
F|---------------------------------|-------------------------*||
C|---------------------------------|-------------------------*||
G|---------------------------------|--------------------------||
C|-5h7-7-7-7-7-7-7-5h7-7-7-7-7-7-7-|-7-7--7-7--7-7--7--7--7---||



{[Verse 2]}
   Piano arr. for guitar
D|-7----------0-|--------------|
A|-8------8-----|-0------------|
F|-9------7-----|----0-2-4-----|
C|-9------9-----|--------5-----|
G|-7------------|--------------|
C|--------------|--------------|


D|-7----------0-|--------------|
A|-8------8-----|-0------------|
F|-9------7-----|----0-2-------|
C|-9------9-----|--------2-----|
G|-7------------|--------2-----|
C|--------------|--------------|


{[Pre-Chorus 2]}
   same as before
D|----------------|---------------|
A|----------------|---------------|
F|-4------5---9---|-7------5------|
C|-4------5---9---|-7------5------|
G|-2------3---7---|-5------3------|
C|----------------|---------------|

D|-----------------|-----------------|-----------------|-----------------|
A|-----------------|-----------------|-----------------|-----------------|
F|-----------------|-----------------|-----------------|-----------------|
C|-2-2-2-2-2-2-2-2-|-----------------|-----------------|-----------------|
G|-0-0-0-0-0-0-0-0-|-2-2-2-2-2-2-2-2-|-0-0-0-0-0-0-0-0-|-3-3-3-3-3-3-3-3-|
C|-----------------|-2-2-2-2-2-2-2-2-|-0-0-0-0-0-0-0-0-|-3-3-3-3-3-3-3-3-|
   * * * * * * *     * * *   * * * *   * * * * * * * *   * * * * * * * *


{[Chorus 2]}
   (Right speaker)
D||----------------------------------|-------------------------------|
A||----------------------------------|-------------------------------|
F||*---------------------------------|-------------------------------|
C||*-5--2-2-2-2-5p2-5--2-2-2-2-5p4p2-|-5--2-2-2-5p4p2-5--2-2-2-5p4p2-|
G||----------------------------------|-------------------------------|
C||----------------------------------|-------------------------------|
 ||(Left Speaker)
D||----------------------------------|-------------------------------|
A||----------------------------------|-------------------------------|
F||*---------------------------------|-------------------------------|
C||*---------------------------------|-------------------------------|
G||----------------------------------|-------------------------------|
C||--5--2-2-2-2-5p2-5--2-2-2-2-5p4p2-|-5--2-2-2-5p4p2-5--2-2-2-5p4p2-|


D|---------------------------------|--------------------------||
A|---------------------------------|--------------------------||
F|---------------------------------|-------------------------*||
C|-5h7-7-7-7-7-7-7-5h7-7-7-7-7-7-7-|-------------------------*||
G|---------------------------------|-5-5--5-5--5-5--5--5--5---||
C|---------------------------------|--------------------------||
 |
D|---------------------------------|--------------------------||
A|---------------------------------|--------------------------||
F|---------------------------------|-------------------------*||
C|---------------------------------|-------------------------*||
G|---------------------------------|--------------------------||
C|-5h7-7-7-7-7-7-7-5h7-7-7-7-7-7-7-|-7-7--7-7--7-7--7--7--7---||


{[Bridge]}
D|----------------|-------------|-------------|--------------|
A|----0-----------|-------------|-------------|--------------|
F|----2-----------|-------------|-3-----------|--------------|
C|-3-(3)----------|-2-----5-----|-3-----5-----|-0-----5------|
G|-3-(3)----0-----|-0-----5-----|-1-----5-----|-0-----3------|
C|-3-(3)----0-----|-------5-----|-------5-----|-0----(0)-----|


{[Keyboard Solo]} (not 100% sure here)
D||--------------------|--------------------||
A||--------------------|--------------------||
F||*-------------------|-------------------*||
C||*-2-2----0---2----0-|---2----0---2----0-*||
G||--2-2-22-0---2-22-0-|---2-22-0---2-22-0--||
C||--2-2-22-0---2-22-0-|---2-22-0---2-22-0--||
     * *        *          *        * 

{[Post Solo]}
D||------------|-------------|----------|--------------||
A||------------|-------------|----------|--------------||
F||*-5---------|-------------|-5--------|-------------*||
C||*-5---------|---6----6----|-5--------|--------3----*||
G||--3---------|---6----6----|-3--------|-5--6---3-----||
C||------------|---6----6----|----------|-6--6---3-----||


D|-----------|-------------------|
A|-----------|-------------------|
F|-3---3-6---|----------------10-| 
C|---3-----6-|-----6-8-----10----|
G|-----------|---6-----6-8-------|
C|-----------|-6-----------------|
slight harmonic on all of these notes

  same as intro
D|--------------------------|
A|--------------------------|
F|--------------------------|_______ 
C|--------------------------|       |
G|-2--2-2--2-2--2--2-2--2-2-|       |
C|-2--2-2--2-2--2--2-2--2-2-|       |
 | *  * *  * *  *  * *  * *     Play 4 times
D|--------------------------|       |
A|--------------------------|       |
F|--------------------------|_______|
C|-2--2-2--2-2--2--2-2--2-2-|
G|--------------------------|
C|--------------------------|


{[Final Chorus]}
   (Right speaker)
D||--------------------------------|-------------------------------|
A||--------------------------------|-------------------------------|
F||*-------------------------------|-------------------------------|
C||*-5h7-7-7--5-----5h7-7-7--5-----|-5h7-7-7--5-----5h7-7-7--5-----|
G||--------------7--------------7--|-------------7--------------7--|
C||--------------------------------|-------------------------------|
 ||(Left Speaker)
D||--------------------------------|-------------------------------|
A||--------------------------------|-------------------------------|
F||*-------------------------------|-------------------------------|
C||*-------------------------------|-------------------------------|
G||--5h7-7-7--5-----5h7-7-7--5-----|-5h7-7-7--5-----5h7-7-7--5-----|
C||--------------7--------------7--|-------------7--------------7--|

                                                           x3
D|---------------------------------|--------------------------||
A|---------------------------------|--------------------------||
F|---------------------------------|-------------------------*||
C|-5h7-7-7-7-7-7-7-5h7-7-7-7-7-7-7-|-------------------------*||
G|---------------------------------|-5-5--5-5--5-5--5--5--5---||
C|---------------------------------|--------------------------||
 |
D|---------------------------------|--------------------------||
A|---------------------------------|--------------------------||
F|---------------------------------|-------------------------*||
C|---------------------------------|-------------------------*||
G|-5h7-7-7-7-7-7-7-5h7-7-7-7-7-7-7-|--------------------------||
C|---------------------------------|-7-7--7-7--7-7--7--7--7---||


D|-------------------------------|-------------------------------|
A|-------------------------------|-------------------------------|
F|-------------------------------|-------------------------------|
C|-5h7-7-7--5-----5h7-7-7--5-----|-5h7-7-7--5-----5h7-7-7--5-----|
G|-------------7--------------7--|-------------7--------------7--|
C|-------------------------------|-------------------------------|
 |
D|-------------------------------|-------------------------------|
A|-------------------------------|-------------------------------|
F|-------------------------------|-------------------------------|
C|-------------------------------|-------------------------------|
G|-5h7-7-7--5-----5h7-7-7--5-----|-5h7-7-7--5-----5h7-7-7--5-----|
C|-------------7--------------7--|-------------7--------------7--|


D|---------------------------------|--------------------------|------------||
A|---------------------------------|--------------------------|------------||
F|---------------------------------|--------------------------|------------||
C|-5h7-7-7-7-7-7-7-5h7-7-7-7-7-7-7-|--------------------------|------------||
G|---------------------------------|-5-5--5-5-5--5-5-5--5-5-5-|-5----------||
C|---------------------------------|--------------------------|------------||
 |
D|---------------------------------|--------------------------|------------||
A|---------------------------------|--------------------------|------------||
F|---------------------------------|--------------------------|------------||
C|---------------------------------|--------------------------|------------||
G|-5h7-7-7-7-7-7-7-5h7-7-7-7-7-7-7-|--------------------------|------------||
C|---------------------------------|-7-7--7-7-7--7-7-7--7-7-7-|-7----------||
________________________________________________________________________
Thank you for viewing! Feel free to ask questions/give corrections in the comments!


Tab Legend:
_______________________________
* = palm mute
p = pull off
h = hammer on
Добавлено: 06.10.2015
Вам также может быть интересно:
Другие материалы по этой песне:
  • Аккорды и текст

Страница создана 05.07.2012
http://primanota.ru/mullmuzzler/statued-chords.htm
Привет, Гость.
Предлагаем пройти революционный курс по гитаре.
Подарок от PrimaNota.Ru, забирай!