PrimaNota.ru - самый крупный в мире бесплатный архив песенных текстов, аккордов, табулатур и нот


Mullmuzzler - Listening - текст песни, таба, видео

Регистрация Запомнить меня
Войти через:  Facebook Google Twitter Vk Yandex Mail.ru

Mullmuzzler - Listening - текст песни, таба, видео

Печатать
Просмотров: 86
James LaBrie's Mullmuzzler - "Listening" Solo
Off of the album "Mullmuzzler 2"
Transcribed by imspazzen

I've always loved this solo so I thought I would figure it out and share it :)
 
______________________________________________
Tab Legend
----------------------------------------------
b=bend
pb=pre-bend
r=release
h=hammer on
p=pull off
s=legato slide
/ and \ =shift slides (not legato)
"=tremolo pick
_____________________________________________

                                                  slight bend here
  2:30                                                |
e|------------------7-|-------------------------|----------7-----------------|
B|----------7---7h9---|-7b9~-----7pb9r7---7-----|-----7b-9---7/8-7---7-------|
G|-----9b11---9-------|-----------------9-----9-|---9--------------9---8h9-6-|
D|--------------------|-------------------------|----------------------------|
A|--------------------|-------------------------|----------------------------|
E|--------------------|-------------------------|----------------------------|

e|----------------------|------------------------------|------------------7----9-9s12---|
B|------------7~----7~--|-9-9-9~--7---9-9-9~-7---7-7b8r|7~---7----7---7s9---9-----------|
G|------6-8-9-----------|-----------9----------9-------|---9----9---9-------------------|
D|-9--------------9-----|------------------------------|--------------------------------|
A|----------------------|------------------------------|--------------------------------|
E|----------------------|------------------------------|--------------------------------|

   quick slides here
e|-12~s9-9-7-9s12--12s9~~-7---|-14p12--14--12--14s16~-14p12-14--12--|
B|--------------------------9-|-------------------------------------|
G|----------------------------|-------------------------------------|
D|----------------------------|-------------------------------------|
A|----------------------------|-------------------------------------|
E|----------------------------|-------------------------------------|

e|-14~--12-----12-------------|-------------------------------|
B|---------14-----14~---12"---|-12h14p12--12"---14b17r14------| slow bend/slow release
G|----------------------------|-------------------------------|
D|----------------------------|-------------------------------|
A|----------------------------|-------------------------------|
E|----------------------------|-------------------------------|

e|-----------------------------------------------|
B|--12-14------------------9-12------------------|
G|--------13-13s11-9-11-12------11s12-11-9---11--|
D|-----------------------------------------------|
A|-----------------------------------------------|
E|-----------------------------------------------|

e|-----------------------------------|-------------12---12-|
B|-----------------------------------|-------------x----x--|
G|-8~-------8-11--9--11--9--11-9-11--|-9-----9-----9----9--|
D|-----9-11--------------------------|-------x-------------|
A|-----------------------------------|-------7-------------|
E|-----------------------------------|---------------------|

3:02
e|---12-11-12-------12---------------------|-----------------------------------------|
B|---------------14-----12-12s14-14~-------|-------12-----12s14-14----------12-------|
G|-9---------------------------------11-11s|13--13-----13----------11-11h13----13-11-|
D|-----------------------------------------|-----------------------------------------|
A|-----------------------------------------|-----------------------------------------|
E|-----------------------------------------|-----------------------------------------|

e|-----------------------------|------------------||
B|-----------------------------|------------------||
G|-11s13--11-9-11~-9-----9-----|-9h11p9-----------||
D|-------------------11----11--|--------11--------||
A|-----------------------------|------------------||
E|-----------------------------|------------------||
Добавлено: 06.10.2015
Другие материалы по этой песне:
  • Аккорды и текст

Страница создана 16.06.2012
http://primanota.ru/mullmuzzler/listening-chords.htm
Привет, Гость.
Предлагаем пройти революционный курс по гитаре.
Подарок от PrimaNota.Ru, забирай!