PrimaNota.ru - самый крупный в мире бесплатный архив песенных текстов, аккордов, табулатур и нот


Mullmuzzler - Afterlife - текст песни, таба, видео

Регистрация Запомнить меня
Войти через:  Facebook Google Twitter Vk Yandex Mail.ru

Mullmuzzler - Afterlife - текст песни, таба, видео

Печатать
Просмотров: 127
James LaBrie's Mullmuzzler - "Afterlife"
Off of the 2001 album "Mullmuzzler 2"
Transcribed by imspazzen

Tuning: down 1/2 step (Eb Ab Db Gb Bb Eb)


You're going to have to experiment with the scratchy wah riff during the break/outro. I have neither
and amp nor wah pedal so I just tried to match the pitch. There's also some delay in that part making 
it even harder to tell what's going on. If in doubt, just groove along and scratch the strings 
"randomly" in open position.

I also got confused concerning the time sigs in the outro so the bars aren't an exact portrayal
of them.


{[Chorus 1]}
   1:23
  clean tone w/chorus
eb|---------------------|----------------------|----------------------|----------------------|
Bb|----------2----------|-----------2----------|----------------------|-----------2----------|
Gb|------4--------4---4-|------4---------4---4-|------4----6----4---4-|------4---------4---4-|
Db|----4----------------|----2-----------------|----5----5--------5---|----2----2----2---2---|
Ab|-2---------------2---|-5-------5--------5---|----------------------|-0--------------------|
Eb|---------------------|----------------------|-3--------------------|----------------------|
let ring - - - - - - - | l.r. - - - - - - - - | l.r. - - - - - - - - | l.r. - - - - - - - - | 

eb|---------------------|--------------------|-2--2---3-------|---------3-----|-------3--2--|
Bb|----------2----------|--------------------|-2--2---3-------|-2-------3-3---|-------3--2--|
Gb|------4--------4---2-|------4--6----4-----|-3--3---2-------|-2--2-5--5-----|-------5--4--|
Db|----4------------4---|----7-----------4-7-|-4--4---5-------|-x-------3-----|-------------|
Ab|-2-------------------|-5------------------|-4--4-----------|-4-------3-----|-------------|
Eb|---------------------|--------------------|-2--2-----------|---------------|-------------|
 l.r. - - - - - - - - | l.r. - - - - - - - |                           l.r. - - - - - |


{[Interlude]}
  Gtr. 1 (w/delay and some modulation effect)
            <
eb|------------------------------|--------------------------------|
Bb|---------10----------/12------|-\10-----------\8-----------\5--|
Gb|------------------------------|--------------------------------|
Db|------------------------------|--------------------------------|
Ab|------------------------------|--------------------------------|
Eb|------------------------------|--------------------------------|
  |
  |Gtr.2 (w/wah & delay)
eb|------------------------------|--------------------------------|
Bb|------------------------------|--------------------------------|
Gb|------x----x----x-----x-------|--------x--x---x--x-----x-------|
Db|-2p0--x-x--x-x--x-x-x-x-x-x---|-2p0--x-x--x-x-x--x-x-x-x-x-x---|
Ab|--------x----x----x-x---x-x-x-|------x------x------x-x---x-x---|
Eb|----------------------------x-|------------------------------0-|


eb|------------------------------|---------------------------------|
Bb|-5--------/10--------/12------|--\10----------\8----------------|
Gb|------------------------------|---------------------------------|
Db|------------------------------|---------------------------------|
Ab|------------------------------|---------------------------------|
Eb|------------------------------|---------------------------------|
  |
eb|------------------------------|---------------------------------|
Bb|-----------x------------------|---------------------------------|
Gb|------x----x-x--x-----x-------|------x---------x--x-----x-------|
Db|-2p0--x-x----x--x-x-x-x-x-x-x-|-2p0--x-x-x-x-x-x--x-x-x-x-2-----|
Ab|--------x---------x-x---x-x-x-|--------x-x-x-x------x-x---------|
Eb|------------------------------|-----------------------------0-0-|


eb|------------------------------|--------------------------------|
Bb|-(8)~-----/10--------/12------|-\10----------\8---------\5-----|
Gb|------------------------------|--------------------------------|
Db|------------------------------|--------------------------------|
Ab|------------------------------|--------------------------------|
Eb|------------------------------|--------------------------------|
  |
eb|------------------------------|--------------------------------|
Bb|------------------------------|--------------------------------|
Gb|------x----x----x-----x-x-----|------x--------x--x-----x-x-x-x-|
Db|-2p0--x-x--x-x--x-x-x-x-x-x-x-|-2p0--x-x-x--x-x--x-x-x-x-x-x-x-|
Ab|--------x----x----x-x-----x-x-|--------x-x--x------x-x---x-x-x-|
Eb|------------------------------|--------------------------------|


eb|-------------------------------|------------------------------|
Bb|-(5)~-----/10---------/12------|-/15-----------/17------------|
Gb|-------------------------------|------------------------------|
Db|-------------------------------|------------------------------|
Ab|-------------------------------|------------------------------|
Eb|-------------------------------|------------------------------|
  |
eb|-------------------------------|------------------------------|
Bb|-------------------------------|------------------------------|
Gb|--------x--------x-----x-------|-----x---x----x-x-----x-------|
Db|-2p0--x-x--x-x-x-x-x-x-x-x-x-x-|-2p0-x-x-x--x-x-x-x-x-x-x-x-x-|
Ab|------x----x-x-x---x-x---x-x-x-|-------x----x-----x-x---x-x-x-|
Eb|-------------------------------|------------------------------|


eb|---------------------------------|-------------------------------|
Bb|-(17)~------\10----------12------|-/17---------\10-------\8------|
Gb|---------------------------------|-------------------------------|
Db|---------------------------------|-------------------------------|
Ab|---------------------------------|-------------------------------|
Eb|---------------------------------|-------------------------------|
  |
eb|---------------------------------|-------------------------------|
Bb|---------------------------------|-------------------------------|
Gb|--------x----x-----x-----x-x-----|------x------x-x---x-x-x-x-----|
Db|-2p0--x-x--x-x-x-x-x-x-x-x-x-x-x-|-2p0--x-x--x-x-x-x-x-x-x-x-----|
Ab|------x----x---x-x---x-x-----x-x-|--------x--x-----x-----x-x-----|
Eb|---------------------------------|---------------------------0-0-|


eb|----------------|
Bb|-/17"----15~----| <---last note is held throughout the first few
Gb|----------------|     bars of the next verse
Db|----------------|
Ab|----------------|
Eb|----------------|
  |
eb|----------------|
Bb|----------------|
Gb|----------------|
Db|----------------|
Ab|-7p5\-----------|
Eb|----------------|



{[Verse 2]}
e|------------|-----------|----------|----------------|-------------|---------------|
B|------------|-----------|----------|----------------|-------------|---------------|
G|------------|----*------|----------|---7------------|-------------|---------------|
D|-7--9-------|-7--9\-----|-7--9-----|---5--7---------|-------------|---------------|
A|-5--7-------|-5--7\-----|-5--7-----|------5---7--5--|-------7--5--|-----x-x-7--5--|
E|------------|-----------|----------|----------5--3--|-------5--3--|-----x-x-5--3--|
*- I think he may be depressing the whammy bar, but I'm not sure.


e|-------|----------|----------|----------|----------------|------------|--------------|
B|-7-----|----------|----------|----------|----------------|------------|--------------|
G|-9-----|----------|----------|----------|---7------------|------------|--------------|
D|-9-----|-7--9\----|-7--9-----|-7--9-----|---5--7---------|------------|--------------|
A|-7-----|-5--7\----|-5--7-----|-5--7-----|------5---7--5--|------7--5--|----x-x-7--5--|
E|-------|----------|----------|----------|----------5--3--|------5--3--|----x-x-5--3--|


e|-----------|
B|-----------|
G|-4---------|
D|-4---------|
A|-2---------|
E|-----------|



{[Chorus 2]}
  3:43
eb|--------------------|--------------------|----------------------|----------------------|
Bb|---------2----------|---------2----------|----------------------|-----------2----------|
Gb|------4-------4---2-|------4-------4---4-|------4----6----4---4-|------4---------4---4-|
Db|----4-----------4---|----2---------------|----5----5--------5---|----2----2--------2---|
Ab|-2------------------|-5--------------5---|----------------------|-0--------------------|
Eb|--------------------|--------------------|-3--------------------|----------------------|
  l.r. - - - - - - - | l.r. - - - - - - - |  l.r. - - - - - - - |   l.r. - - - - - - - |


eb|---------------------|--------------------|-2--2---3-------|---------3-----|-------3-----|
Bb|----------2----------|--------------------|-2--2---3-------|-2-------3-3---|-------3-----|
Gb|------4--------4---2-|------4--6----------|-3--3---2-------|-2--2-5--5-----|-------5--4--|
Db|----4------------4---|----7---------------|-4--4---5-------|-x-------3-----|-------------|
Ab|-2-------------------|-5------------------|-4--4-----------|-4-------3-----|-------------|
Eb|---------------------|--------------------|-2--2-----------|---------------|-------------|
 l.r. - - - - - - - - | l.r. - - - - - - - |                          l.r. - - - - - - - -|


eb|--------------------|--------------------|----------------------|----------------------|
Bb|---------2----------|---------2----------|----------------------|-----------2----------|
Gb|------4-------4---4-|(2)---4-------4---4-|------4----6----4---4-|------4---------4---4-|
Db|----4-----------4---|----2---------------|----5----5--------5---|----2----2----2---2---|
Ab|-2------------------|-5--------------5---|----------------------|-0--------------------|
Eb|--------------------|--------------------|-3--------------------|----------------------|
  l.r. - - - - - - - | l.r. - - - - - - - |  l.r. - - - - - - - |   l.r. - - - - - - - |


eb|---------------------|--------------------|-2--2---3-------|---------3-----|-------2-----|
Bb|----------2----------|--------------------|-2--2---3-------|-2-------3-3---|-------3-----|
Gb|------4--------------|------4--6----------|-3--3---2-------|-2--2-5--5-----|-------5-----|
Db|----4----------------|----7---------------|-4--4---5-------|-x-------3-----|-------5-----|
Ab|-2-------------------|-5------------------|-4--4-----------|-4-------3-----|-------------|
Eb|---------------------|--------------------|-2--2-----------|---------------|-------------|
 l.r. - - - - - - - - | l.r. - - - - - - - |                          l.r. - - - - |



{[Outro]}
    w/wah and delay
eb|------------------------------|------------------------------|
Bb|------------------------------|------------------------------|
Gb|--------x--x----x-----x-------|------x----x----x-----x-------|
Db|-2p0--x-x--x-x--x-x-x-x-x-----|-2p0--x-x--x-x--x-x-x-x-x-----|
Ab|------x------x----x-x---x-----|--------x----x----x-x---x-----|
Eb|--------------------------0-0-|--------------------------0-0-|

eb|---------------------------------|------------------------------|
Bb|---------------------------------|------------------------------|
Gb|--------x----x-----x-----x-------|------x------x----x---x-x-----|
Db|-2p0--x-x--x-x-x-x-x-x-x-x-x-----|-2p0--x-x--x-x--x-x-x-x-x-----|
Ab|------x----x---x-x---x-x---x-----|--------x--x----x---x-x-x-----|
Eb|-----------------------------0-0-|--------------------------0-0-|

eb|--------------------------------|------------------------------|
Bb|--------------------------------|------------------------------|
Gb|-------x-----x----x-----x-x-----|------x-------x-x-x---x-x-----|
Db|-2p0-x-x-x-x-x--x-x-x-x-x-x-----|-2p0--x-x---x-x-x-x-x-x-x-x---|
Ab|-----x---x-x----x---x-x---------|--------x---x-------x-----x---|
Eb|----------------------------0-0-|--------------------------x-0-|

eb|-------------------------------|-------------------------------|
Bb|-------------------------------|-------------------------------|
Gb|--------x--x-----x-x---x-------|--------x--x-------x---x-------|
Db|-2p0--x-x--x-x-x-x-x-x-x-x-----|-2p0--x-x--x-x-x-x-x-x-x-x-x---|
Ab|------x------x-x-----x---x-----|------x------x-x-x---x---x-x---|
Eb|---------------------------0-0-|---------------------------x-0-|


    (left channel) w/wah and delay
eb|-------------------------------|---------------------------------|
Bb|-------------------------------|---------------------------------|
Gb|------x--x-------x-----x-------|--------x--x-----x-------x-------|
Db|-2--x-x--x-x-x-x-x-x-x-x-x-----|-2p0--x-x--x-x-x-x-x-x-x-x-x-x-x-|
Ab|----x------x-x-x---x-x---x-----|------x------x-x---x-x-x---x-x-x-|
Eb|-------------------------x-0-0-|---------------------------------|
  |
  | (right channel) w/delay
eb|-----------------------5-------|---------------5--3h5------------|
Bb|-5--8p5-----5--8p5--------8p5--|---5--3h5-------------------5----|
Gb|-------------------------------|---------------------------------|
Db|-------------------------------|---------------------------------|
Ab|-------------------------------|---------------------------------|
Eb|-------------------------------|---------------------------------|


eb|----------------------|-----------------------------|
Bb|-3h5-------------14b15|-14-12------------------14b15|
Gb|----------------------|---------14b15-14-12---------|
Db|--------7--5h7--------|-----------------------------|
Ab|----------------------|-----------------------------|
Eb|----------------------|-----------------------------|
  |
eb|----------------------|-----------------------------|
Bb|----------------------|-----------------------------|
Gb|--------x----x--x-----|-4---x---2---x---2---x--2--x-|
Db|-2p0--x-x--x-x--x-x-x-|-2---x---0---x---0---x--0--x-|
Ab|------x----x------x-x-|-----------------------------|
Eb|----------------------|-----------------------------|


eb|---------------------------------|------------------------------|
Bb|-14-12---------------------------|-14b15-14-12------------------|
Gb|----------14b15-14-12------------|----------------14b15r14-12---|
Db|----------------------14~-----12-|--------------x--------------x|
Ab|---------------------------------|------------------------------|
Eb|---------------------------------|------------------------------|
  |
eb|---------------------------------|------------------------------|
Bb|---------------------------------|---------------x--------------|
Gb|-4-------2-------4-------2-------|-4---x---2---x-x-x-x-4---x----|
Db|-2-------0-------2-------0-------|-2---x---0---x-x-x-x-2---x----|
Ab|---------------------------------|------------------------------|
Eb|---------------------------------|------------------------------|


eb|-----------------------------------------|-------------------------------------|
Bb|-14b15-14-12------------------------14b15|14-12---------------14b15~----5--8-5-|
Gb|---------------14b15-14-12---------------|-------14b15-14-12-------------------|
Db|---------------------------14~-----------|-------------------------------------|
Ab|---------------------------------12------|-------------------------------------|
Eb|-----------------------------------------|-------------------------------------|
  |
  |
eb|-----------------------------------------|-------------------------------------|
Bb|-----------------------------------------|-------------------------------------|
Gb|-x----x-----x-------x-------x------x-x-x-|-----------x-x---x-----x-x---x-x-----|
Db|-x----x--x--x----x--x----x--x----x-x-x-x-|-2p0-----x-x-x-x-x-x-x-x-x-x-x-x-x-x-|
Ab|---------x-------x-------x-------x-------|---------x-----x---x-x-----x-----x-x-|
Eb|-----------------------------------------|-------------------------------------|


eb|--------------5-----------------|----------5---3h5---------------|-----------||
Bb|---5---8p5---------8p5-----5----|-3h5-------------------5--3h5---|-----------||
Gb|--------------------------------|--------------------------------|-----------||
Db|--------------------------------|--------------------------------|-7--5h7----||
Ab|--------------------------------|--------------------------------|-----------||
Eb|--------------------------------|--------------------------------|-----------||
  |
  |
eb|--------------------------------|--------------------------------|-----------||
Bb|--------------------------------|--------------------------------|-----------||
Gb|---------x------x-x-----x-x-----|----------x-----x-x-----x-x-x---|-----------||
Db|-5p2-x-x-x--x-x-x-x-x-x-x-x-2-2-|-2p0----x-x---x-x-x-x-x-x-x-x-x-|-2p0-------||
Ab|-----x-x----x-x-----x-x---------|--------x-----x-----x-x-------x-|-----------||
Eb|--------------------------------|--------------------------------|-----------||


______________________________________________________________________________

Tab Legend:
________________________
< = fade in
/ = slide up
\ = slide down
x = muted note
p = pull off
~ = vibrato
" = tremolo pick
h = hammer on
b = bend
r = release
Добавлено: 06.10.2015
Другие материалы по этой песне:
  • Аккорды и текст

Страница создана 19.05.2012
http://primanota.ru/mullmuzzler/afterlife-chords.htm
Привет, Гость.
Предлагаем пройти революционный курс по гитаре.
Подарок от PrimaNota.Ru, забирай!