PrimaNota.ru - самый крупный в мире бесплатный архив песенных текстов, аккордов, табулатур и нот


Mugison - Ljósvíkingur - аккорды и текст, видео

Регистрация Запомнить меня
Войти через:  Facebook Google Twitter Vk Yandex Mail.ru

Mugison - Ljósvíkingur - аккорды и текст, видео

Печатать
Просмотров: 139
Уроки эстрадного вокала в Санкт-Петербурге
Ljósvíkingur
Mugison
-------------------------------------------------------------------------------
                             Ljósvíkingur - Mugison og Hjálmar
-------------------------------------------------------------------------------
Tabbed by: Tómas Torrini
E-mail: TorriniTD5@hotmail.com

Tuning: EADGBE

okay this is a really simple song the chord progression is Gm D Cm Gm.


    Gm                               D
e|-----------------------------------------2-------2-------2-------2|
B|-------------------------------------3-------3-------3-------3----|
G|---------3-------3-------3-------3--------------------------------|
D|-----5-------5------5-------5------0---0---0---0---0---0---0---0--|
A|------------------------------------------------------------------|
E|---3---3---3---3--3---3---3---3-----------------------------------|
     Cm                              G
e|------------------------------------------------------------------|
B|---------4-------4-------4-------4--------------------------------|
G|-----5-------5-------5-------5-----------3-------3-------3-------3|
D|-------------------------------------5-------5-------5-------5----|
A|---3---3---3---3---3---3---3---3----------------------------------|
E|-----------------------------------3---3---3---3---3---3---3---3--|

     Gm
Víst geng ég þennan dimma dal
     D
senn aðrir um svartari sal
   Cm        Gm
ég geng ekki einn.

     Gm
Veit hver einn og einasti einstaklingur
D
fæðist hér sem ljósvíkingur
   Cm        Gm
ég geng ekki einn.

Gm    D    Cm    Gm    

Gm
Hörmungar og vantrú
D
Drottinn hvar ert þú?
   Cm        Gm
Ég geng ekki einn.

      Gm
vildi samt óska að ég væri meira vakandi
   D
og viðurkenni vel að stundum er ég sofandi
   Cm        Gm
og geng aleinn.

Gm    D    Cm    Gm    

   Gm
Ég trúi því að allir hafi kraft
   D
og geti áhrif haft
   Cm        Gm
ég geng ekki einn.

       Gm
ég bið náungann að vaka yfir mér
          D
allir eru ljósvíkingar í hjarta sér
   Cm        Gm
ég geng ekki einn.

Gm
Hörmungar og vantrú
D
Drottinn hvar ert þú?
   Cm        Gm  
Ég geng ekki einn.
Добавлено: 15.12.2015
Другие материалы по этой песне:
  • Аккорды и текст

Страница создана 15.12.2015
http://primanota.ru/mugison/ljosvikingur-chords.htm
Привет, Гость.
Предлагаем пройти революционный курс по гитаре.
Подарок от PrimaNota.Ru, забирай!