PrimaNota.ru - самый крупный в мире бесплатный архив песенных текстов, аккордов, табулатур и нот


Muff Potter - Born Blad - таба, видео

Регистрация Запомнить меня
Войти через:  Facebook Google Twitter Vk Yandex Mail.ru

Muff Potter - Born Blad - таба, видео

Печатать
Просмотров: 171
Born Blöd

Intro:

E---------------------------------	E---------------------------------|
H---------------------------------	H---------------------------------|
G----6-----4----------------------	G----6-----4----------------------|
D----------------7-----6----------	D----------------7-----6--6/7-----|
A-4-----4-----4-----4-------------	A-4-----4-----4-----4----------7--|
E---------------------------------	E---------------------------------|

Riff: 1

E---------------------------------	E---------------------------------|
H---------------------------------	H---------------------------------|
G--6---4--------------------------	G--6---4--------------------------|
D----------6---4------------------	D----------6---4--7-6-------------|
A-4---4---4---4---7-6-------------	A-4---4---4---4-------------------|
E---------------------------------	E---------------------------------|

Strophe

   C#m   A
E---4----0---|
H---5----2---|
G---6----2---|	 2X
D---6----2---|
A---4----0---|
E------------|

Ref:

   G#m   E			   C#m
E---4----0---            E---4--------|
H---4----0---            H---5--------|
G---4----1---    4X         G---6-----|let-ring
D---6----2---            D---6--------|
A---6----2---            A---4--------|
E---4----0---            E--(4)-------|

Guitar2:
mit reverb/delay

E---------------------------------|
H---------------------------------|
G---6666666699999999666666669-----|
D---------------------------------|
A---------------------------------|
E---------------------------------|

Strophe

   C#m   A
E---4----0---|
H---5----2---|
G---6----2---|	 2X
D---6----2---|
A---4----0---|
E------------|

Guitar2:

            C#m           A
E---------------------------------|
H------5--7--5--------------------|
G---6---------------6-------------|
D-------------------------7-------|
A---------------------------------|
E---------------------------------|


Ref:

   G#m   E			   C#m
E---4----0---            E---4-----------|
H---4----0---            H---5-----------|
G---4----1---    4X         G---6--------|
D---6----2---            D---6-----------|
A---6----2---            A---4-----------|
E---4----0---            E--(4)----------|

Guitar2:
with reverb/delay

E---------------------------------|
H---------------------------------|
G---6666666699999999666666669-----|
D---------------------------------|
A---------------------------------|
E---------------------------------|

Ende:

    E    C#m    A     E    C#m    A     H
E---0-----4-----5-----0-----4-----5-----7-----|
H---0-----5-----5-----0-----5-----5-----7-----|
G---1-(2)-6-----6-(8)-1-(2)-6-----6-(8)-8-(9)-|	2X
D---2-----6-(7)-7-----2-----6-(7)-7-----9-----|
A---2-----4-----7-----2-----4-----7-----9-----|
E---0----(4)----5-----0----(4)----5-----7-----|

Outro:
beide Gitarren:
E---------------------------------|
H---------9---9---------9-9-9-9---|
G--6---6--------9---6-----------9-|		2X
D---------------------------------|
A---------------------------------|
E---------------------------------|
Guitar1:
E--------------------------------------0-|
H--------------------------------------2-|
G--------------------------------------2-|
D-----------4--6--7--7--6--4-----------2-|
A--4--6--7--------------------7--6--4--0-|
E----------------------------------------|

Guitar2:
E-----------------------------------------|
H-----------------------------------------|
G-----------------------6--8--9--7--9--10-|
D-----------4--6--7--7--------------------|
A--4--6--7--------------------------------|
E-----------------------------------------|

Bass:
intro:

E---------------   /sideup

E--99999999999-99999999999-

E--99999999999-55555555555-

E--99999999999-55555555555-

E--9/sidedown-

E--99999999999-55555555555- X4

Refrain:

E—4--4-4440--0--0000- 4X
dann
E--9---------------9-9-9-9-

Bridge:

A------------------------------------7----------|
E--9/side------------------------------5--------|

                                       A     A
G-----------------------------------------------|
D-----------------------------------------------|
A-----------9-11-12-12-11--9--------------------|
E--9-11-12-------------------12-11--9--5-----5--|

Ende:

E    C#m    A     E    C#m    A     H 2X


Outro:
G-------------------------------------------|
D--11---11-11---11-11--11--11-11-11-11-11---|  2X
A-------------------------------------------|
E-------------------------------------------|

G----------------------------------------|
D----------------------------------------|
A-----------9-11-12-12-11--9-------------|
E--9-11-12-------------------12-11--9--5-|
Добавлено: 26.06.2012
Другие материалы по этой песне:
  • Аккорды и текст

Страница создана 26.06.2012
http://primanota.ru/muff-potter/born-blad-chords.htm
Привет, Гость.
Предлагаем пройти революционный курс по гитаре.
Подарок от PrimaNota.Ru, забирай!