PrimaNota.ru - самый крупный в мире бесплатный архив песенных текстов, аккордов, табулатур и нот


Mudvayne - Mercy Severity - аккорды и текст, таба, бас-таба, видео

Регистрация Запомнить меня
Войти через:  Facebook Google Twitter Vk Yandex Mail.ru

Mudvayne - Mercy Severity - аккорды и текст, таба, бас-таба, видео

Печатать
Просмотров: 223
Mercy Severity
Mudvayne
		   PM=Palm mute
 >=harmonic

 Intro/Outro:
D-------------------------------------------------------|
A-------------------------------------------------------|
F-------------------------------------------------------|
C-------------------------------------------------------|
G-0-0-0-0--0-0-0--0-0-0--0-0-0-0--0-0-0--0-0-0--0-0-0-0-|
C-0-0-0-0--0-0-0--0-0-0--0-0-0-0--0-0-0--0-0-0--0-0-0-0-|

 Intro/Outro (continued):
D------------------------------------------|
A------------------------------------------|
F------------------------------------------|
C------------------------------------------|
G-0-0-0--0-0-0--0-0-0-0--0-0-0-0--0-0-0-0--|
C-0-0-0--0-0-0--0-0-0-0--0-0-0-0--0-0-0-0--|

 Bridge:
D---------------------------------------------------|
A---------------------------------------------------|
F---------------------------------------------------|
C---------------------------------------------------|
G-0-3-2-0-7--0-3-2-7--0-3-2-0-6--0-3-2-6--0-3-2-0-5-|
C-0-3-2-0-7--0-3-2-7--0-3-2-0-6--0-3-2-6--0-3-2-0-5-|
PM. . . .    . . .    . . . .    . . .    . . . .

 Bridge (continued):
D------------------------------|
A------------------------------|
F------------------------------|
C------------------------------|
G-0-3-2-5--0-3-2-0-4--0-3-2-4--|
C-0-3-2-5--0-3-2-0-4--0-3-2-4--|
PM. . .    . . . .    . . .

 Verse:
D----------------------------------------------------|
A----------------------------------------------------|
F----------------------------------------------------|
C-7-7-7-7-7-7-5-5-5-5-5/7-7-4-4-4-4-4-4-3-3-3-3-3-3--|
G----------------------------------------------------|
C----------------------------------------------------|

 play this at the end of the first verse
D----------------------------------------------------|
A----------------------------------------------------|
F-7-7---------7-7-7---------5-5---------5-5-5--------|
C-7-7-7-7-7-7-5-5-5-5-5/7-7-4-4-4-4-4-4-3-3-3-3-3-3--|
G----------------------------------------------------|
C----------------------------------------------------|



 Chorus:
D--------------------------------------------------------|
A-------------7-7-7-7-------------7-7-7-7-------7-7-7-7--|
F-------------X-X-X-X-------------X-X-X-X-------X-X-X-X--|
C-------------5-5-5-5-------------5-5-5-5-------5-5-5-5--|
G-3-2-0-3-2-0---------0-3-0-3-2-0---------3-2-0----------|
C-3-2-0-3-2-0---------0-3-0-3-2-0---------3-2-0----------|

D-----------------------------------------------------------|
A-----------------------------------------------------------|
F-5-5-5-5-----------------------5-5-5-5-------------7-7-7\--|
C-X-X-X-X-----------------------X-X-X-X-------------X-X-X---|
G-3-3-3-3-0-3-0-3-5-3-0-3-2-0-0-3-3-3-3-0-3-0-3-2-0-7-7-7\--|
C---------0-3-0-3-5-3-0-3-2-0-0---------0-3-0-3-2-0---------|
pm        . . . . . . . . . . .         . . . . . .



 Interlude:
D------------------------------------------------------------|
A------------------------------------------------------------|
F------------------------------------------------------------|
C-------------------------0h3-------------5---------5-----5--|
G------------------------------------------------------------|
C-3-2-0-2-0-2-3-2-0-2-0-2-----0h3-0h3-0h3---0h3-0h3---0h3----|

D-------------------------------------------------------------|
A-------------------------------------------------------------|
F-------------------------------------------------------------|
C---------0h5---------0h5-----0h5---------7---------7-----10--|
G-------------------------------------------------------------|
C-0h5-0h5-----0h5-0h5-----0h5-----0h5-0h5---0h5-0h5---0h7-----|



 Coda:
D----------------------------------------------------------------|
A----------------------------------------------------------------|
F----------------------------------------------------------------|
C-------------------------------5-5-5-5-5-5-5-5-5-5-5-5-5-5-5-5--|
G-3-2-0-2-0-2-3-2-0-2-0-2-3-2-0-X-X-X-X-X-X-X-X-X-X-X-X-X-X-X-X--|
C-3-2-0-2-0-2-3-2-0-2-0-2-3-2-0-3-3-3-3-3-3-3-3-3-3-3-3-3-3-3-3--|

D--------------------------------|
A--------------------------------|
F--------------------------------|
C--------------------------------|
G-3-2-0-2-0-2-3-2-0-2-0-2-3-2-0--|
C-3-2-0-2-0-2-3-2-0-2-0-2-3-2-0--|
pm. . . . . . . . . . . . . . .

D--------------------------------------------------|
A--------------------------------------------------|
F--9--9--9--9--9--9--9--9-12-12-12-12-12-12-12-12--|
C--7--7--7--7--7--7--7--7-10-10-10-10-10-10-10-10--|
G--7--7--7--7--7--7--7--7-10-10-10-10-10-10-10-10--|
C--7--7--7--7--7--7--7--7-10-10-10-10-10-10-10-10--|



 play this at the end of the last verse
D-------------------------------|
A--------- 5>---------- 5>------|
Fm 7>---------- 7>--------- 5>--|
C----- 7>---------- 7>----------|
G-------------------------------|
C-------------------------------|     
Добавлено: 18.08.2013
Другие материалы по этой песне:

Страница создана 03.03.2012
http://primanota.ru/mudvayne/mercy-severity-chords.htm
Привет, Гость.
Предлагаем пройти революционный курс по гитаре.
Подарок от PrimaNota.Ru, забирай!