PrimaNota.ru - самый крупный в мире бесплатный архив песенных текстов, аккордов, табулатур и нот


Mudhoney - My Brother The Cow - таба, видео

Регистрация Запомнить меня
Войти через:  Facebook Google Twitter Vk Yandex Mail.ru

Mudhoney - My Brother The Cow - таба, видео

Печатать
Просмотров: 47
My Brother the Cow- Mudhoney
Most of this is in 1/2 step down tuning.


1.Judgement, Rage, Retribution and Thyme


(4/4 Time) (Tuning [Low to High]: Eb Ab Db Gb Bb Eb) Intro:
 D   Db  B   Db Ab   D Db  B   DbAb
-------------------------------------------------------------|
-8-8\7-7\5-5/7-2-2--8\7-7\5-5/7-2-2--------------------------|
-8-8\7-7\5-5/7-2-2--8\7-7\5-5/7-2-2--------------------------|
-8-8\7-7\5-5/7-2-2--8\7-7\5-5/7-2-2--------------------------|
-------------------------------------------------------------|
-------------------------------------------------------------|
(Guitar 2 w/Slide)


Verse:
 D   Db  B   Db Ab
-------------------------------------------------------------|
-------------------------------------------------------------|
-8\7-7\5-5/7-------------------------------------------------|
-8\7-7\5-5/7-7-7---------------------------------------------|
-6\5-5\3-3/5-7-7---------------------------------------------|
-------------5-5---------------------------------------------|
(Guitar 1) (Both Guitars Repeat Three Times Then Play Below)
-------------------------------------------------------------|
-8\7-7\5-5/7-2-2---------------------------------------------|
-8\7-7\5-5/7-2-2---------------------------------------------|
-8\7-7\5-5/7-2-2---------------------------------------------|
-------------------------------------------------------------|
-------------------------------------------------------------|
(Guitar 2)

 E     D#Db  D Db  B  Db Ab   D Db  B  Db Ab   E     D#Db
-------------------------------------------------------------|
-$---------------------------------------------*-------------|
-10----9-7---8\7-7\5-5/7------8\7-7\5-5/7------10----9-7-----|
-------------8\7-7\5-5/7-7-7--8\7-7\5-5/7-7-7----------------|
-------------6\5-5\3-3/5-7-7--6\5-5\3-3/5-7-7----------------|
-------------------------5-5--------------5-5----------------|
(Guitar 1) (During Second Verse Play Fill 1, During Fourth

Verse Play Fill 4 Starting at *)(During Third Verse Play Fill
1 Starting at $)
-------------------------------------------------------------|
-10---\9\7--/8\7-7\5-5/7-2-2-/8\7-7\5-5/7-2-2--10---\9\7-----|
-10---\9\7--/8\7-7\5-5/7-2-2-/8\7-7\5-5/7-2-2--10---\9\7-----|
-10---\9\7--/8\7-7\5-5/7-2-2-/8\7-7\5-5/7-2-2--10---\9\7-----|
-------------------------------------------------------------|
-------------------------------------------------------------|
(Guitar 2)

  D Db  B  Db Ab   D Db  B  Db Ab    Eb    Db
-------------------------------------------------------------|
----------------------------------------------%--------------|
--8\7-7\5-5/7------8\7-7\5-5/7-------9-----7-----------------|
--8\7-7\5-5/7-7-7--8\7-7\5-5/7-7-7---9-----7-----------------|
--6\5-5\3-3/5-7-7--6\5-5\3-3/5-7-7---7-----5-----------------|
--------------5-5--------------5-5---------------------------|
(Guitar 1) (At the End of the Second Verse, Play Fill 2
Starting at %)
-------------------------------------------------------------|
-/8\7-7\5-5/7-2-2-/8\7-7\5-5/7-2-2--/9-----7-----------------|
-/8\7-7\5-5/7-2-2-/8\7-7\5-5/7-2-2--/9-----7-----------------|
-/8\7-7\5-5/7-2-2-/8\7-7\5-5/7-2-2--/9-----7-----------------|
-------------------------------------------------------------|
-------------------------------------------------------------|
(Guitar 2)

Fill 1:
 E       D#Db
-------------------------------------------------------------|
----8--------------------------------------------------------|
-10---10-9-7-------------------------------------------------|
-------------------------------------------------------------|
-------------------------------------------------------------|
-------------------------------------------------------------|
(Guitar 1)

Fill 2:
 Db
-------------------------------------------------------------|
-------------------------------------------------------------|
-5---5-------------------------------------------------------|
---7---7-----------------------------------------------------|
-------------------------------------------------------------|
-------------------------------------------------------------|
(Guitar 1)

Fill 3:
 E         D#Db
-------------------------------------------------------------|
-------------------------------------------------------------|
-10-10(12)-9-7-----------------------------------------------|
-------------------------------------------------------------|
-------------------------------------------------------------|
-------------------------------------------------------------|
(Guitar 1)

Fill 4:
 N.C.
-------------------------------------------------------------|
-------------------------------------------------------------|
-10-10-10(12)10-7--------------------------------------------|
-------------------------------------------------------------|
-------------------------------------------------------------|
-------------------------------------------------------------|
(Guitar 1)


Solo:
 D   Db  B   DbAb
-------------------------------------------------------------|
-------------------------------------------------------------|
-8\7-7\5-5/7-------------------------------------------------|
-8\7-7\5-5/7-7-7---------------------------------------------|
-6\5-5\3-3/5-7-7---------------------------------------------|
-------------5-5---------------------------------------------|
(Guitar 1) (Both Guitars Repeat Three Times Then Play Below)
-------------------------------------------------------------|
-8\7-7\5-5/7-2-2---------------------------------------------|
-8\7-7\5-5/7-2-2---------------------------------------------|
-8\7-7\5-5/7-2-2---------------------------------------------|
-------------------------------------------------------------|
-------------------------------------------------------------|
(Guitar 2)

 N.C.                      Db               D#
-------------------------------------------------------------|
-3-3-3-3-3-3-3-3-3-3-3-3-3-3-5-3-3-3-3-3-3-5-5-----3-5-----3-|
-----------------------------------------------2-4-----2-4---|
-------------------------------------------------------------|
-------------------------------------------------------------|
-------------------------------------------------------------|
(Guitar 1)
-------------------------------------------------------------|
--------------------------/7-7-7-7-/7--7-7-/9-9-9-9-/9-9-9-9-|
--------------------------/7-7-7-7-/7--7-7-/9-9-9-9-/9-9-9-9-|
--------------------------/7-7-7-7-/7--7-7-/9-9-9-9-/9-9-9-9-|
-------------------------------------------------------------|
-------------------------------------------------------------|
(Guitar 2)

  Ab                                         F# E  F# E
-5---5-----------3-----5--------------3----5-5-5(7)5-3-5-----|
---------3-----5------------3----5---------------------------|
-------------------------------------------------------------|
-------------------------------------------------------------|
-------------------------------------------------------------|
-------------------------------------------------------------|
(Guitar 1)
-------------------------------------------------------------|
-/14-14-14-14-14-14-14-/14-14-14-14-14-14-14-12\10-12\10-----|
-/14-14-14-14-14-14-14-/14-14-14-14-14-14-14-12\10-12\10-----|
-/14-14-14-14-14-14-14-/14-14-14-14-14-14-14-12\10-12\10-----|
-------------------------------------------------------------|
-------------------------------------------------------------|
(Guitar 2)

 F# E  F# E  F# E  F#
-5h6---8-----6-5---3~----------------------------------------|
-------------------------------------------------------------|
-------------------------------------------------------------|
-------------------------------------------------------------|
-------------------------------------------------------------|
-------------------------------------------------------------|
(Guitar 1)
-------------------------------------------------------------|
-12\10-12\10-12\10-12/---------------------------------------|
-12\10-12\10-12\10-12/---------------------------------------|
-12\10-12\10-12\10-12/---------------------------------------|
-------------------------------------------------------------|
-------------------------------------------------------------|
(Guitar 2)


Ending:
 D Db  B  Db AbF#Ab
-------------------------------------------------------------|
-------------------------------------------------------------|
-8\7-7\5-5/7-------------------------------------------------|
-8\7-7\5-5/7-7-5-7-------------------------------------------|
-6\5-5\3-3/5-7-5-7-------------------------------------------|
-------------5-3-5-------------------------------------------|
(Guitar 1)
-----------------%-------------------------------------------|
-8\7-7\5-5/7\2-0-2-------------------------------------------|
-8\7-7\5-5/7\2-0-2-------------------------------------------|
-8\7-7\5-5/7\2-0-2-------------------------------------------|
-------------------------------------------------------------|
-------------------------------------------------------------|
(Guitar 2) (%=w/Vibrato Bar)

-----------------------------------------------------------------------------
2. Generation Spokesmodel

(4/4 Time) (Tuning [Low to High]: Eb Ab Db Gb Bb Eb) Intro:
 Bb  E  Bb E Bb A
-------------------------------------------------------------|
-------------------------------------------------------------|
-----10---10-------------------------------------------------|
-9-9-10-9-10-9--7-7-X-7-X-7----------------------------------|
-9-9--8-9--8-9--7-7-X-7-X-7----------------------------------|
-7-7----7----7--5-5-X-5-X-5----------------------------------|
(Guitar 1)

---*---------------------------------------------------------|
-7-7----------6-6--------------------------------------------|
-4-4----------3-3--------------------------------------------|
-------------------------------------------------------------|
-------------------------------------------------------------|
-------------------------------------------------------------|
(Guitar 2) (Guitar 2 is Tacet During the Intro) (Repeat Four
Times then Play Below) (Fourth time Through, Stop at *) (Do
Not Play this Section During the Thrid Verse)

 Bb  E  Bb E Bb A
-------------------------------------------------------------|
-7-7-7-7------6-6-6-6----------------------------------------|
-4-4-4-4------3-3-3-3----------------------------------------|
-------------------------------------------------------------|
-------------------------------------------------------------|
-------------------------------------------------------------|
(Guitar 2)

Chorus:
 Db Ab Db F# Db Ab F#
-------------------------------------------------------------|
-------------------------------------------------------------|
-7-----7-----7-----------------------------------------------|
-7--7--7--5--7--7--5--5-5-5-5-5-5-5-5------------------------|
-5--7--5--5--5--7--5--5-5-5-5-5-5-5-5------------------------|
----5-----3-----5--3--3-3-3-3-3-3-3-3------------------------|
(Guitars 1 and 2)

 Emaj7
-------------------------------------------------------------|
-5-------5-------5-------5-----------------------------------|
-------------------------------------------------------------|
---5-5-5---5-5-5---5-5-5---5-5-5-----------------------------|
-------------------------------------------------------------|
-------------------------------------------------------------|
(Guitar 1) (Do Not Play this Section During the Third Chorus)
-------------------------------------------------------------|
-5-------5-------5-------5-----------------------------------|
-5-------5-------5-------5-----------------------------------|
-3-------3-------3-------3-----------------------------------|
-------------------------------------------------------------|
-------------------------------------------------------------|
(Guitar 2) (During Second Chorus, Guitar 1 Plays Fill 1
Instead of the Above)

Fill 1:
 Emaj7
-------------------------------------------------------------|
-------------------------------------------------------------|
-------------------------------------------------------------|
-10------10------10-------10---------------------------------|
-------------------------------------------------------------|
-------------------------------------------------------------|
(Guitar 2)

Solo:
 Bb              A                  Bb            A
-/7-7-7-7-7-7-7-/10-10-10-10-7-7-7---------------------------|
-------------------------------------------------------------|
-----------------------------------/9-9-9-9-9-9-9-9-7-7------|
--------------------------------------------------------9----|
-------------------------------------------------------------|
-------------------------------------------------------------|
(Guitar 1)
-------------------------------------------------------------|
-------------------------------------------------------------|
-------------------------------------------------------------|
-9-9-9-9-9-9-9-9--8-8-8-8-8-8-8-8----------------------------|
-9-9-9-9-9-9-9-9--8-8-8-8-8-8-8-8----------------------------|
-7-7-7-7-7-7-7-7--6-6-6-6-6-6-6-6----------------------------|
(Gutiar 2) (Repeat Three Times)

 Bb           A              Bb             A
-----------------------------7-7-7-9-10-10-10--10-10-7-7-7---|
-------------------------------------------------------------|
-9-9-9-10-10-10-9-7-7----------------------------------------|
----------------------9--9-9---------------------------------|
-------------------------------------------------------------|
-------------------------------------------------------------|

Bridge:
 Bb
-------------------------------------------------------------|
-------------------------------------------------------------|
-------------------------------------------------------------|
-9--------9-9-------9-9--------------------------------------|
-9--------9-9-------9-9--------------------------------------|
-7--------7-7-------7-7--------------------------------------|
(Guitar 1)
-------------------------------------------------------------|
-------#--------#--------#-----------------------------------|
-------------------------------------------------------------|
-9--9-----9-9-------9-9--------------------------------------|
-9--9-----9-9-------9-9--------------------------------------|
-7--7-----7-7-------7-7--------------------------------------|
(Guitar 2) (#=Feedback)

Ending:
 Bb
-------------------------------------------------------------|
-------------------------------------------------------------|
-------------------------------------------------------------|
-9-9---------------------------------------------------------|
-9-9---------------------------------------------------------|
-7-7---------------------------------------------------------|
(Guitars 1 and 2)

3. What Moves the Heart?

4/4 Time) (Tuning [Low to High]: Eb Ab Db Gb Bb Eb) Intro/Verse:
  B  BbA AbF#Ab
-------------------------------------------------------------|
---------1---------------------------------------------------|
-----2---2---------------------------------------------------|
-------------------------------------------------------------|
-0-0-3-------------------------------------------------------|
-------1-----------------------------------------------------|
(Guitar 1) (Repeat Eleven Times Then Play Below) (Guitar 1 is
Tacet on Occassion) (Second Chorus Repeat Nine Times)
-------------------------------------------------------------|
-------------------------------------------------------------|
-------------------------------------------------------------|
-10--9-8-7-5-7-7--7------------------------------------------|
-10--9-8-7-5-7-7--7------------------------------------------|
--8--7-6-5-3-5-5--5------------------------------------------|
(Guitar 2) (Guitar 2 Enters Fifth Time Through During the
First Verse)

 N.C.  F#Ab
-------0-0-0-------------------------------------------------|
-------3-1-3-------------------------------------------------|
-------------------------------------------------------------|
-------------------------------------------------------------|
-------------------------------------------------------------|
-------------------------------------------------------------|
(Guitar 1) (Both Guitars Repeat Three Times)
-------------------------------------------------------------|
-------------------------------------------------------------|
-------------------------------------------------------------|
-------5-7-7--7----------------------------------------------|
-8-6-4-5-7-7--7----------------------------------------------|
-------3-5-5--5----------------------------------------------|
(Guitar 2)


Chorus:
 B    F# Ab
-------------------------------------------------------------|
-------------------------------------------------------------|
-------------------------------------------------------------|
-10----------------------------------------------------------|
-----10-12-12------------------------------------------------|
-------------------------------------------------------------|
(Guitar 1) (Both Guitars Repeat Three Times Then Play Below)
-------------------------------------------------------------|
-------------------------------------------------------------|
-------------------------------------------------------------|
-10---5--7--7---7--------------------------------------------|
-10---5--7--7---7--------------------------------------------|
--8---3--5--5---5--------------------------------------------|
(Guitar 2)


  B  BbA AbF#Ab
-------------------------------------------------------------|
-------------------------------------------------------------|
-------------------------------------------------------------|
-10--9-8-7-5-7-7---------------------------------------------|
-------------------------------------------------------------|
-------------------------------------------------------------|
(Guitar 1) (Both Guitars Repeat Three Times) (At the End of
the First Chorus Play Fill 1) (Do Not Play this Section At
the End of the Song)
-------------------------------------------------------------|
-------------------------------------------------------------|
-------------------------------------------------------------|
-10--9-8-7-5-7-7--7------------------------------------------|
-10--9-8-7-5-7-7--7------------------------------------------|
--8--7-6-5-3-5-5--5------------------------------------------|
(Guitar 2)

Fill 1:
 N.C.
-------------------------------------------------------------|
-------------------------------------------------------------|
-----------*-------------------------------------------------|
-7-----------------------------------------------------------|
-------------------------------------------------------------|
-------------------------------------------------------------|
(Guitar 1) (*=Feedback)
-------------------------------------------------------------|
-------------------------------------------------------------|
-9~--------9~------------------------------------------------|
-------------------------------------------------------------|
-------------------------------------------------------------|
-------------------------------------------------------------|
(Guitar 2)


Ending:
 C
-------------------------------------------------------------|
-------------------------------------------------------------|
-------------------------------------------------------------|
-11-11-------------------------------------------------------|
-------------------------------------------------------------|
-------------------------------------------------------------|
(Guitar 1)
-------------------------------------------------------------|
-------------------------------------------------------------|
-------------------------------------------------------------|
-11-11-------------------------------------------------------|
-11-11-------------------------------------------------------|
--9--9-------------------------------------------------------|
(Guitar 2)

-----------------------------------------------------------------------------
4. Today is a Good Day

(4/4 Time) (Tuning [Low to High] Eb Ab Db Gb Bb Eb) Intro/Verse:
   G#    C     Bb    F   F#
-x-5-5-x-----x-----x-2-2-3-----------------------------------|
-x-5-5-x-6-6-x-4-4-x-2-2-3-----------------------------------|
-x-6-6-x-6-6-x-4-4-x-3-3-4-----------------------------------|
-x-7-7-x-6-6-x-4-4-x-4-4-5-----------------------------------|
-x-7-7-x-4-4-x-2-2-x-4-4-5-----------------------------------|
-x-5-5-x-----x-----x-2-2-3-----------------------------------|
(Guitar 1)
---5-5-------------------------------------------------------|
---5-5---6-6---4-4-------------------------------------------|
---6-6---6-6---4-4-------------------------------------------|
---7-7---6-6---4-4-------------------------------------------|
---------4-4---2-2-------------------------------------------|
-------------------------------------------------------------|
(Guitar 2) (Guitar 2 Joins in 3rd Time; Does not Play During
Much of the Song)


Chorus:
 Db    Gb       Db    Gb       Db    Gb       Db    Gb
-------------------------------------------------------------|
-7-7-7-12-12-12-7-7-7-12-12-12-7-7-7-12-12-12-7-7-7-12-12-12-|
-7-7-7-12-12-12-7-7-7-12-12-12-7-7-7-12-12-12-7-7-7-12-12-12-|
-7-7-7-12-12-12-7-7-7-12-12-12-7-7-7-12-12-12-7-7-7-12-12-12-|
-5-5-5-10-10-10-5-5-5-10-10-10-5-5-5-10-10-10-5-5-5-10-10-10-|
-------------------------------------------------------------|
(Guitars 1 and 2)

 C                                                   Ab
-----------------------------------------------------5-------|
-6-6-6-6-6-6-6-6-6-6-6-6-6-6-6-----------------------5-------|
-6-6-6-6-6-6-6-6-6-6-6-6-6-6-6-----------------------6-------|
-6-6-6-6-6-6-6-6-6-6-6-6-6-6-6-----------------------7-------|
-4-4-4-4-4-4-4-4-4-4-4-4-4-4-4-----------------------7-------|
-----------------------------------------------------5-------|
(Repeat Once)                       (Guitar 1 Ends with This)
-----------------------------------------------------5--2----|
-6-6-6-6-6-6-6---------------------------------------5----2--|
-6-6-6-6-6-6-6-6(7)(7)(7)(7)(7)6*--------------------6-------|
-6-6-6-6-6-6-6---------------------------------------7-------|
-4-4-4-4-4-4-4---------------------------------------7-------|
-----------------------------------------------------5-------|
(Guitar 2) (Second Time Through) (*=Approximation.  The
Actual note is slightly above 7) (2nd Chorus: Do not play
Ending) (3rd Chorus: Both Guitars Play Second Part of Chorus
Four Times Then the Ending)


Solo:
----------------------------------------------2--------------|
-----------------------------7-------------2----2------------|
-----------------4-2-4-2-4-5---5-4-5-4-2-4-2-----------------|
----------4-2--5---------------------------2-----------------|
---4-2--5----------------------------------------------------|
-5-----------------------------------------------------------|
(Guitar 1) (Guitar 2 Tacet)

-----------------------------------------------------------------------------
5. Into Yer Shtik

(4/4 Time) (Tuning [Low to High]: Eb Ab Db Gb Bb Eb) Intro:
 N.C.          B   N.C.          B
-------------------------------------------------------------|
---------------5-5---------------5-6-5-3---------------------|
---------------5-5---------------5-6-5-3---------------------|
---------------5-5-------------------------------------------|
---------------3-3-------------------------------------------|
-3-3-4-3-5-3-3-----3-3-4-3-5-3-3-----------------------------|
(Guitar 1)
-------------------------------------------------------------|
---------------5-5---------------5-5-------------------------|
---------------5-5---------------5-5-------------------------|
---------------5-5---------------5-5-------------------------|
---------------3-3---------------3-3-------------------------|
-------------------------------------------------------------|
(Guitar 2)

 N.C.          B   N.C.          B
-------------------------------------------------------------|
---------------5-5---------------5-6-------------------------|
---------------5-5---------------5-6-6-5-3-0-----------------|
---------------5-5-------------------------------------------|
---------------3-3-------------------------------------------|
-3-3-4-3-5-3-3-----3-3-4-3-5-3-3-----------------------------|
(Guitar 1)
-------------------------------------------------------------|
---------------5-5---------------5-5-------------------------|
---------------5-5---------------5-5-------------------------|
---------------5-5---------------5-5-------------------------|
---------------3-3---------------3-3-------------------------|
-------------------------------------------------------------|
(Guitar 2)


Verse:
 N.C.          B
-------------------------------------------------------------|
---------------5-5---5---------------------------------------|
---------------5-5---5---------------------------------------|
---------------5-5---5---------------------------------------|
---------------3-3---3---------------------------------------|
-3-3-4-3-5-3-3-----------------------------------------------|
(Guitar 1)
-------------------------------------------------------------|
---------------5-5-------------------------------------------|
---------------5-5-------------------------------------------|
---------------5-5-------------------------------------------|
---------------3-3-------------------------------------------|
-------------------------------------------------------------|
(Guitar 2)


Chorus:
 Bb         Ab         F                              C#
-------------------------------------------------------------|
-------------------------------------------------------------|
-4-4-4-4-4--2-2-2-2-2--11-11-11-11-11-11-11-11-11-11--7-7----|
-4-4-4-4-4--2-2-2-2-2--11-11-11-11-11-11-11-11-11-11--7-7----|
-2-2-2-2-2--0-0-0-0-0---9--9--9--9--9--9--9--9--9--9--5-5----|
-------------------------------------------------------------|
(Guitar 1)
------------------------------9--------------9------------5--|
-4-4-4-4-4-\2-2-2-2-2-/11-11----11----/11-11---11----/7-7----|
-4-4-4-4-4-\2-2-2-2-2-/11-11-------11-/11-11------11-/7-7----|
-4-4-4-4-4-\2-2-2-2-2-/11-11----------/11-11-------*-/7-7----|
-------------------------------------------------------------|
-------------------------------------------------------------|
(Guitar 2) (Do Not Play * During Second Chorus)

                             F#      F   F#
-------------------------------------------------------------|
-------------------------------------------------------------|
-7-7--7-7-7-7-7--7-7-7-7-7---12---*--11--12------------------|
-7-7--7-7-7-7-7--7-7-7-7-7---12--12--11--12------------------|
-5-5--5-5-5-5-5--5-5-5-5-5---10-------9--10------------------|
-------------------------------------------------------------|
(Guitar 1)
----------5----------5---------------------------------------|
-7---/7-7---7---/7-7---7----/12------11-/12------------------|
---7-/7-7-----7-/7-7-----7--/12------11-/12------------------|
-----/7-7-------/7-7--------/12------11-/12------------------|
-------------------------------------------------------------|
-------------------------------------------------------------|
(Guitar 2)


Bridge:
 F#                      C#
-------------------------------------------------------------|
-------------------------------------------------------------|
-----------------------$-7-7-7-7-7-7-7-7-7-7-7-7-------------|
-5-5-5-5-5-5-5-5-5-5-5-5-7-7-7-7-7-7-7-7-7-7-7-7-------------|
-5-5-5-5-5-5-5-5-5-5-5-5-5-5-5-5-5-5-5-5-5-5-5-5-------------|
-3-3-3-3-3-3-3-3-3-3-3-3-------------------------------------|
(Guitar 1) (Repeat Three Times Then Play Below) (Last Time
Through Stop at $) (Guitar 2 is Tacet)


Theme 2:
 C#                      F#
-------------------------------------------------------------|
-------------------------------------------------------------|
-7-7-7-7-7-7-7-7-7-7-7-7-------------------------------------|
-7-7-7-7-7-7-7-7-7-7-7-7-5-5-5-5-5-5-5-5-5-5-5-5-------------|
-5-5-5-5-5-5-5-5-5-5-5-5-5-5-5-5-5-5-5-5-5-5-5-5-------------|
-------------------------3-3-3-3-3-3-3-3-3-3-3-3-------------|
(Guitar 1) (Repeat Once Then Play Below) (Do Not Play Fourth
Time Through)

 C#                          F#
-------------------------------------------------------------|
-%-----------------------------------------------------------|
-7-7-7-7-7-7-7-7-7-7-7-7-7-7-12-12-12-12-12-12-12-12-12-12---|
-7-7-7-7-7-7-7-7-7-7-7-7-7-7-12-12-12-12-12-12-12-12-12-12---|
-5-5-5-5-5-5-5-5-5-5-5-5-5-5-10-10-10-10-10-10-10-10-10-10---|
-------------------------------------------------------------|
(Guitar 1) (Second Time Through Guitar 1 Plays Fill 1 while
Guitar 2 Repeats Simile, Third Time Through Both Guitar Play
Fill 3 Starting at %)
---------------------------------10-10------------10-10------|
-/7--7-7-7-7-7-/7--7-7-7-7-7-/12-------12-----/12------------|
-/7------------/7------------/12----------12--/12------------|
-/7------------/7------------/12--------------/12------------|
-------------------------------------------------------------|
-------------------------------------------------------------|
(Guitar 2)

           C#                      F#
-------------------------------------------------------------|
--------------------------------------12-12-12-12-12----12---|
-12-12-12--7-7-7-7-7-7-7-7-7-7-7-7-12----------------12------|
-12-12-12--7-7-7-7-7-7-7-7-7-7-7-7-12----------------12------|
-10-10-10--5-5-5-5-5-5-5-5-5-5-5-5-10----------------10------|
-------------------------------------------------------------|
(Guitar 1)
-------------5-5---------5-5----------10-10-------------10---|
-12-------/7-----7----/7-----7----/12-------12------/12------|
----12----/7-------7--/7-------7--/12----------12---/12------|
----------/7----------/7----------/12---------------/12------|
-------------------------------------------------------------|
-------------------------------------------------------------|
(Guitar 2)

-------------------------------------------------------------|
-12-12-12-12-------------------------------------------------|
-------------------------------------------------------------|
-------------------------------------------------------------|
-------------------------------------------------------------|
-------------------------------------------------------------|
(Guitar 1)
-10----------------------------------------------------------|
----12-------------------------------------------------------|
-------12----------------------------------------------------|
-------------------------------------------------------------|
-------------------------------------------------------------|
-------------------------------------------------------------|
(Guitar 2)

Fill 1:
 C#                      F#                              C#
-----------------------------------12-12-12-12-12-12-12\-----|
-------------------------------------------------------------|
-7-7-7-7-7-7-7-7-7-7-7-7-/12-12-12-----------------------7-7-|
-------------7-7-----------------------------------------7-7-|
-------------5-5-----------------------------------------5-5-|
-------------------------------------------------------------|
(Guitar 1)

                         F#
-------------------------12-12-12-12-12-12-12-12-12-12-------|
-------------------------------------------------------------|
-7-7-7-7-7-7-7-7-7-7-7-7-------------------------------------|
-7-7-7-7-7-7-7-7-7-7-7-7-------------------------------------|
-5-5-5-5-5-5-5-5-5-5-5-5-------------------------------------|
-------------------------------------------------------------|
(Guitar 1)

Fill 2:
 C#                          F#
-------------------------------------------------------------|
-------------------------------------------------------------|
-7-7-7-7-7-7-7-7-7-7-7-7-7-7-12~-12~-12~-12~-12~-12~-12~-12~-|
-------------------------------------------------------------|
-------------------------------------------------------------|
-------------------------------------------------------------|
(Guitar 1)
-------------------------------------------------------------|
-/7~-7~---------------------/12~-12~-------------------------|
-/7~-7~---------------------/12~-12~-------------------------|
-/7~-7~---------------------/12~-12~-------------------------|
-------------------------------------------------------------|
-------------------------------------------------------------|
(Guitar 2)

 C#                      F#
-10-10-10-10-10-10-10-10-------------------------------------|
-------------------------12~-12~-12~-12~-12~-12~-12~-12~-----|
-------------------------------------------------------------|
-------------------------------------------------------------|
-------------------------------------------------------------|
-------------------------------------------------------------|
(Guitar 1)
-------------------------------------------------------------|
-/7~-7~-----------------/12~-12~-----------------------------|
-/7~-7~-----------------/12~-12~-----------------------------|
-/7~-7~-----------------/12~-12~-----------------------------|
-------------------------------------------------------------|
-------------------------------------------------------------|
(Guitar 2)


Ending:
  C#              F#                      C#
------------------------------------------10-10-10-10-12-12--|
--13-11-11-11-11---------------------------------------------|
------------------7~-7~-7~-7~-7~-7~-7~-7~--------------------|
-------------------------------------------------------------|
-------------------------------------------------------------|
-------------------------------------------------------------|
(Guitar 1)
-------------------------------------------------------------|
-/7~-------------/12~--------------------\7~-----------------|
-/7~-------------/12~--------------------\7~-----------------|
-/7~-------------/12~--------------------\7~-----------------|
-------------------------------------------------------------|
-------------------------------------------------------------|
(Guitar 2)

       F#                  C#
-12-10-------------------------------------------------------|
-------12-12-12-12-12/---------------------------------------|
--------------------#------7---------------------------------|
---------------------------7---------------------------------|
---------------------------5---------------------------------|
-------------------------------------------------------------|
(Guitar 1) (#=Tremelo Pick)
-------------------------------------------------------------|
------/12~----------------\7---------------------------------|
------/12~----------------\7---------------------------------|
------/12~----------------\7---------------------------------|
-------------------------------------------------------------|
-------------------------------------------------------------|
(Guitar 2)

-----------------------------------------------------------------------------
6. In My Finest Suit

(4/4 Time) (Tuning [Low to High]: Eb Ab Db Gb Bb Eb) Intro:
 Ebm         B        Bb7      Ebm    B      Bb7       Ebm
-----3-0-----------------------------------------------------|
---------3-0-------------------------------------------------|
---------------0--------2------------------------------------|
-2-2-------------2--------1----------------------------------|
-2-2---------3-----0--2-----0--------------------------------|
-0-0---------------------------------------------------------|
(Guitar 1)
-/12---------------------------------------------------------|
-/12---------12-------12-------------------------------------|
-------------14(16)---(16)14-12--------------------------7-9-|
--------------------------------14----12-9-9-9-9-9-7--/9-----|
-------------------------------------------------------------|
-------------------------------------------------------------|
(Guitar 2) (Guitar 2 Enters Fifth Time Through)

    B   Bb7     Ebm   B  Bb7
-------------------------------------------------------------|
-------------------0-----------------------------------------|
-9-/9-7------------0-----------------------------------------|
--------7h9-7------------------------------------------------|
--------------9-7----/10-7-----------------------------------|
-------------------------------------------------------------|
(Guitar 2)


Verse:
 Ebm   B   Bb7
----0--------------------------------------------------------|
----0--*-----------------------------------------------------|
-------5-X-4-------------------------------------------------|
-2-----5-X-4-------------------------------------------------|
-2-----3-X-2-2-----------------------------------------------|
-0-----------------------------------------------------------|
(Guitar 2) (Repeat Simile) (Guitar 1 Plays the Same as During
the Intro) (Both Guitars Play Below Last Time Through Before
the Chorus)

 B       Bb
-------------------------------------------------------------|
-------------------------------------------------------------|
-5-5-5-5-4-4-4-4---------------------------------------------|
-5-5-5-5-4-4-4-4---------------------------------------------|
-3-3-3-3-2-2-2-2---------------------------------------------|
-------------------------------------------------------------|
(Guitars 1 and 2)


Chorus:

-------------------------------------------------------------|
-------------------------------------------------------------|
-2-2-2-2-2-2-2-10-5-5-5-5-7-7-7-7-7-7-7-10-5-5-5-5-----------|
-2-2-2-2-2-2-2-10-5-5-5-5-7-7-7-7-7-7-7-10-5-5-5-5-----------|
-0-0-0-0-0-0-0--8-3-3-3-3-5-5-5-5-5-5-5--8-3-3-3-3-----------|
-------------------------------------------------------------|
(Guitar 1) (Both Guitars Repeat Once Then Play Below)
-------------------------------------------------------------|
--------------------5-5-5--------------------5-5-5-----------|
-2-2-2-2-2-2-2-10-5-5-5-5-7-7-7-7-7-7-7-10-5-5-5-5-----------|
-2-2-2-2-2-2-2-10-5-------7-7-7-7-7-7-7-10-5-----------------|
-0-0-0-0-0-0-0--8-3-------5-5-5-5-5-5-5--8-3-----------------|
-------------------------------------------------------------|
(Guitar 2)

 Bb
-------------------------------------------------------------|
-------------------------------------------------------------|
-4-4-4-4-4-4-4-4-4-4-4-4-4-4-4-------------------------------|
-4-4-4-4-4-4-4-4-4-4-4-4-4-4-4-------------------------------|
-2-2-2-2-2-2-2-2-2-2-2-2-2-2-2-------------------------------|
-------------------------------------------------------------|
(Guitars 1 and 2)


Solo #1:

-12--15--12--------------------------------------------------|
--------------------------------------------9---9---9--------|
------------14-12-----------------------/9--9---9---9--------|
--------------------14-14--14-12--9-7-9-------9---9---7-9----|
-------------------------------------------------------------|
-------------------------------------------------------------|
(Guitar 2) (Guitar 1 Plays The Same As During the Intro Four
Times)


-0-----------------------------------------------------------|
-0-----------------------------------------------------------|
-------------------------------------------------------------|
-------------------------------------------------------------|
---10-9-7----------------------------------------------------|
-------------------------------------------------------------|
(Guitar 2)


Bridge:

-0------0------0------0-0-0-0--------------------------------|
-0------0------0------0-0-0-0--------------------------------|
------------------------------5-5-5-5-4-4-4-4----------------|
-2------2------2------2-2-2-2-5-5-5-5-4-4-4-4----------------|
-2------2------2------2-2-2-2-3-3-3-3-2-2-2-2----------------|
-0------0------0------0-0-0-0--------------------------------|
(Guitar 1)
-------------------------------------------------------------|
-------------------------------------------------------------|
----5-4----5-4----5-4---------5-5-5-5-4-4-4-4----------------|
-2--5-4-2--5-4-2--5-4-2-------5-5-5-5-4-4-4-4----------------|
-2--3-2-2--3-2-2--3-2-2-------3-3-3-3-2-2-2-2----------------|
-0------0------0------0--------------------------------------|
(Guitar 2)


Solo #2:
 Eb                 B        Bb           Eb
-------------------------------------------------------------|
-------------------------------------------------------------|
--------------------5--5-----4-----4-------------------------|
-2------2---2-------5--5-----4-----4------2------2-----------|
-2------2---2-------3--3-----2-----2------2------2-----------|
-0------0---0-----------------------------0------0-----------|
(Guitar 1)
-/12-12-12-12-12-12-15-15-15-12----12------------------------|
-/12-12-12-12-12-12-------------15----15---------------------|
------------------------------------------14(16)-14(16)-12---|
-------------------------------------------------------------|
-------------------------------------------------------------|
-------------------------------------------------------------|
(Guitar 2)

               B                Bb        Eb
-------------------------------------------------------------|
-------------------------------------------------------------|
---------------5----5-----5-----4---4--4---------------------|
--2------------5----5-----5-----4---4--4--2-----2-------2----|
--2------------3----3-----3-----2---2--2--2-----2-------2----|
--0---------------------------------------0-----0-------0----|
(Guitar 1)
-------------------------------------------------------------|
-------------------------------------------------------------|
-14(16)-12--14-14(16)-12-14(16)-12--------9-9-9-9-9-9-9-9-9--|
-----------------------------------14-14---------------------|
-------------------------------------------------------------|
-------------------------------------------------------------|
(Guitar 2)

      B              Bb     Eb                      B
-------------------------------------------------------------|
-------------------------------------------------------------|
------5---5----------4--4---------------------------5--5-----|
------5---5----------4--4---2--2---2----------------5--5-----|
------3---3----------2--2---2--2---2----------------3--3-----|
----------------------------0--0---0-------------------------|
(Guitar 1)
-------------------------------------------------------------|
-----10---------------------------------------------12/15----|
-9-9-----9(11)-(11)9-7-7-7--10/12-12-12-12/14-14-14----------|
-------------------------------------------------------------|
-------------------------------------------------------------|
-------------------------------------------------------------|
(Guitar 2)

          Bb          Eb
-------------------------------------------------------------|
-------------------------------------------------------------|
----------4--4-----------------------------------------------|
----------4--4--------2--------------------------------------|
----------2--2--------2--------------------------------------|
----------------------0--------------------------------------|
(Guitar 1)
-------------------------------------------------------------|
-15-15-15-15-15/17-17----------------------------------------|
-------------------------------------------------------------|
----------------------2--------------------------------------|
----------------------2--------------------------------------|
----------------------0--------------------------------------|
(Guitar 2)


Ending:
 Eb B    Bb Eb  B   Bb      Eb
----------------------------------------------3-0------------|
--------------------------------------------------3-0--------|
----5----4-----5---4-----------------------------------------|
-2--5----4-2---5---4-------2---------------------------------|
-2--3----2-2---3---2-------2---------------------------------|
-0---------0---------------0---------------------------------|
(Guitar 1)
----5(7)-5-0--/3-0-3-3/5-3-0---------------------------------|
------------------------------5p3--5p3---5p3-----------------|
-------------------------------------------------------------|
-2-----------------------------------------------------------|
-2-----------------------------------------------------------|
-0-----------------------------------------------------------|
(Guitar 2)

-----------------------------------------------------------------------------
7. F.D.K (Fearless Doctor Killers)

(4/4 Time) Verse:
 B                               Bb    Eb  Bb
-------------------------------------------------------------|
-------------------------------------------------------------|
-5-5-5-5-5-5-5-5-5-5-5-5-5-5-5-5-4-4-4-----4-4-4-4-4-4-4-4---|
-5-5-5-5-5-5-5-5-5-5-5-5-5-5-5-5-4-4-4-2-2-4-4-4-4-4-4-4-4---|
-3-3-3-3-3-3-3-3-3-3-3-3-3-3-3-3-2-2-2-2-2-2-2-2-2-2-2-2-2---|
---------------------------------------0-0-------------------|
(Guitars 1 and 2)


Chorus:
 Db                              Bb
-------------------------------------------------------------|
-------------------------------------------------------------|
-7-7-7-7-7-7-7-7-7-7-7-7-7-7-7-7-4-4-4-4-4-4-4-4-4-4-4-4-4-4-|
-7-7-7-7-7-7-7-7-7-7-7-7-7-7-7-7-4-4-4-4-4-4-4-4-4-4-4-4-4-4-|
-5-5-5-5-5-5-5-5-5-5-5-5-5-5-5-5-2-2-2-2-2-2-2-2-2-2-2-2-2-2-|
-------------------------------------------------------------|
(Guitars 1 and 2)

     Db                              Bb
-------------------------------------------------------------|
-----------------------------------------------------*-------|
-4-4-7-7-7-7-7-7-7-7-7-7-7-7-7-7-7-7-4-4-4-4-4-4-4-4-4-4-4-4-|
-4-4-7-7-7-7-7-7-7-7-7-7-7-7-7-7-7-7-4-4-4-4-4-4-4-4-4-4-4-4-|
-2-2-5-5-5-5-5-5-5-5-5-5-5-5-5-5-5-5-2-2-2-2-2-2-2-2-2-2-2-2-|
-------------------------------------------------------------|
(Guitars 1 and 2)                   (*=End here First Chorus)

-------------------------------------------------------------|
-------------------------------------------------------------|
-4-4-4-4-----------------------------------------------------|
-4-4-4-4-----------------------------------------------------|
-2-2-2-2-----------------------------------------------------|
-------------------------------------------------------------|
(Guitars 1 ans 2)


Bridge:
 Bb     E    Eb    Db    Bb
-------------------------------------------------------------|
-13-12-13-12-13-12-13-12-12----------------------------------|
-------------------------------------------------------------|
-------------------------------------------------------------|
-------------------------------------------------------------|
-------------------------------------------------------------|
(Guitar 1) (Repeat Twice)
-------------------------------------------------------------|
-------------------------------------------------------------|
-------10-----9-----7----------------------------------------|
-9-----10-----9-----7-----9-9-9-9-9-9-9-9-9-x-x-x-x-x-x-x----|
-9------8-----7-----5-----9-9-9-9-9-9-9-9-9-x-x-x-x-x-x-x----|
-7------------------------7-7-7-7-7-7-7-7-7-x-x-x-x-x-x-x----|
(Guitar 2) (Repeat Twice)

Bb     E    Eb    Db    Bb
-------------------------------------------------------------|
-13-12-13-12-13-12-13-12-12-12-12-12-12-12-12-12-12----------|
-------------------------------------------------------------|
-------------------------------------------------------------|
-------------------------------------------------------------|
-------------------------------------------------------------|
(Guitar 1)
-------------------------------------------------------------|
-------------------------------------------------------------|
-------10-----9-----7----------------------------------------|
-9-----10-----9-----7-----9--9--9--9--9--9--9--9--9----------|
-9------8-----7-----5-----9--9--9--9--9--9--9--9--9----------|
-7------------------------7--7--7--7--7--7--7--7--7----------|
(Guitar 2)


Ending:
 Eb
-------------------------------------------------------------|
-12----------------------------------------------------------|
-------------------------------------------------------------|
-------------------------------------------------------------|
-------------------------------------------------------------|
-------------------------------------------------------------|
(Guitar 1)
-------------------------------------------------------------|
-------------------------------------------------------------|
-------------------------------------------------------------|
-2-----------------------------------------------------------|
-2-----------------------------------------------------------|
-0-----------------------------------------------------------|
(Guitar 2)
-----------------------------------------------------------------------------
8. Orange Ball-Peen Hammer

(4/4 Time) (Tuning [Low to High]: Eb Ab Db Gb Bb Eb)
Intro/Verse:
     Eb B  Db
-------------------------------------------------------------|
-------------------------------------------------------------|
-------------------------------------------------------------|
-------------------------------------------------------------|
-----4-----5-------------------------------------------------|
-5-5----5----------------------------------------------------|
(Guitar 1)
-------------------------------------------------------------|
-----9\(5)/7-------------------------------------------------|
-----9\(5)/7-------------------------------------------------|
-----9\(5)/7-------------------------------------------------|
-------------------------------------------------------------|
-------------------------------------------------------------|
(Guitar 2 w/Slide) (Joins in 5th Time on Intro)


Fill 1:
-------------------------------------------------------------|
-/8--8--7--5-------------------------------------------------|
-------------------------------------------------------------|
-------------------------------------------------------------|
-------------------------------------------------------------|
-------------------------------------------------------------|
(Guitar 1) (Played 4th and 12th Times in Intro/Verse 1; 4th
Time in Verse 2)


1st Chorus/1st Part of 3rd Chorus:
 F             Eb                     F
----------------------------------------------------4--------|
-------------------------------------------------------------|
----------4(6)4---------2(4)-2(4)-(4)2-------4-4(6)---(6)4---|
--4-4-4-4-------2-2-2-2----------------4-4-4-----------------|
--4-4-4-4-------2-2-2-2----------------4-4-4-----------------|
--2-2-2-2-------0-0-0-0----------------2-2-2-----------------|
(Guitar 1)
-------------------------------------------------------------|
-/11-----/11---\9------\9-------------/11-----/11------------|
-/11-----/11---\9------\9-------------/11-----/11------------|
-/11-----/11---\9------\9-------------/11-----/11------------|
-------------------------------------------------------------|
-------------------------------------------------------------|
(Guitar 2)

 Eb            Ab
---------3---------------------------------------------------|
---------3---------------------------------------------------|
-----------2-------------------------------------------------|
-2-2-2-2-----------------------------------------------------|
-2-2-2-2-----------------------------------------------------|
-0-0-0-0-----------------------------------------------------|
(Guitar 1)
----------------*--------------------------------------------|
-\9-----\9----/14--------------------------------------------|
-\9-----\9----/14--------------------------------------------|
-\9-----\9----/14--------------------------------------------|
-------------------------------------------------------------|
-------------------------------------------------------------|
(Guitar 2) (Not included in 1st Part of 3rd Chorus)


Chorus #2:
F                             Eb                     F
-------------------------------------------------------------|
-------------------------------------------------------------|
----------4(6)-(6)-(6)-(6)4-2---------2(4)-2(4)-(4)2---------|
--4-4-4-4---------------------2-2-2-2----------------4-4-4---|
--4-4-4-4---------------------2-2-2-2----------------4-4-4---|
--2-2-2-2---------------------0-0-0-0----------------2-2-2---|
(Guitar 1)
-------------------------------------------------------------|
-/11-----/11-----------------\9------\9-------------/11------|
-/11-----/11-----------------\9------\9-------------/11------|
-/11-----/11-----------------\9------\9-------------/11------|
-------------------------------------------------------------|
-------------------------------------------------------------|
(Guitar 2)

               Eb            Ab
--------4--------------3-------------------------------------|
-----------------------3-------------------------------------|
-4-4(6)---(6)4-----------2-----------------------------------|
---------------2-2-2-2---------------------------------------|
---------------2-2-2-2---------4---5------4---5------4---5---|
---------------0-0-0-0-----5-5---5----5-5---5----5-5---5-----|
(Guitar 1)
-------------------------------------------------------------|
-\11----------\9------\9----/14------------------------------|
-\11----------\9------\9----/14------------------------------|
-\11----------\9------\9----/14------------------------------|
-------------------------------------------------------------|
-------------------------------------------------------------|
(Guitar 2)

-------------------------------------------------------------|
-------------------------------------------------------------|
-------------------------------------------------------------|
-------------------------------------------------------------|
-----4---5---------------------------------------------------|
-5-5---5-----------------------------------------------------|
(Guitar 1) (Guitar 2 Tacet)


Bridge:
         Ab
-------------------------------------------------------------|
-------------------------------------------------------------|
-------------------------------------------------------------|
-------------------------------------------------------------|
-----4---5------4---5------4---5------4---5------------------|
-5-5---5----5-5---5----5-5---5----5-5---5--------------------|
(Guitar 1)
-------------------------------------------------------------|
---------14\--------14\--------14\--------14\----------------|
---------14\--------14\--------14\--------14\----------------|
---------14\--------14\--------14\--------14\----------------|
-------------------------------------------------------------|
-------------------------------------------------------------|
(Guitar 2)

 Ab                      N.C.*       Ab
-------------------------------------------------------------|
-------------------------------------------------------------|
-2-2-2-2-2-2-2-2-2-2-2-2------------/14-14-14-14-14-14-14-14-|
-2-2-2-2-2-2-2-2-2-2-2-2-----*------/14-14-14-14-14-14-14-14-|
-0-0-0-0-0-0-0-0-0-0-0-0------------/14-14-14-14-14-14-14-14-|
-------------------------------------------------------------|
(Guitar 1)
-------------------------------------------------------------|
-2-2-2-2-2-2-2-2-2-2-2-2------------/14-14-14-14-14-14-14-14-|
-2-2-2-2-2-2-2-2-2-2-2-2-----*------/14-14-14-14-14-14-14-14-|
-2-2-2-2-2-2-2-2-2-2-2-2------------/14-14-14-14-14-14-14-14-|
-------------------------------------------------------------|
-------------------------------------------------------------|
(Guitar 2) (*= Slide from the Low A chord to the High
Gradually, and While Still Picking)


2nd Part of 3rd Chorus/End:
F                      Eb                     F
---------------4---------------------------------------------|
-------------------------------------------------------------|
----------4(6)---(6)4----------2(4)-2(4)-2(4)----------------|
--4-4-4-4--------------2-2-2-2----------------4-4-4----------|
--4-4-4-4--------------2-2-2-2----------------4-4-4----------|
--2-2-2-2--------------0-0-0-0----------------2-2-2----------|
(Guitar 1)
-------------------------------------------------------------|
-/11-----/11----------\9------\9-------------/11-------------|
-/11-----/11----------\9------\9-------------/11-------------|
-/11-----/11----------\9------\9-------------/11-------------|
-------------------------------------------------------------|
-------------------------------------------------------------|
(Guitar 2)

               Eb            Ab
---------------------------3-----5---------------------------|
---------------------------3-----5---------------------------|
-4(6)-(6)-(6)-(6)4-----------5-------------------------------|
-------------------2-2-2-2-----------------------------------|
-------------------2-2-2-2-----------------------------------|
-------------------0-0-0-0-----------------------------------|
(Guitar 1)
-------------------------------------------------------------|
-\11--------------\9------\9----/14~-------------------------|
-\11--------------\9------\9----/14~-------------------------|
-\11--------------\9------\9----/14~-------------------------|
-------------------------------------------------------------|
-------------------------------------------------------------|
(Guitar 2)

-----------------------------------------------------------------------------
9. Crankcase Blues

(4/4 Time) (Tuning [Low to High]: Eb Ab Db Gb Bb Eb) Intro/Verse:
 B                A                B               A
-------------------------------------------------------------|
-5-5-5------------3-3-X-3-X-3-3-3--5-5-5-----------3-3-X-3-X-|
-5-5-5-----5-7-5--3-3-X-3-X-3-3-3--5-5-5-----5-7-5-3-3-X-3-X-|
-5-5-5-5h8--------3-3-X-3-X-3-3----5-5-5-5h8-------3-3-X-3-X-|
-3-3-3------------1-1-X-1-X-1-1----3-3-3-----------1-1-X-1-X-|
-------------------------------------------------------------|
(Guitar 1) (Repeat Simile)
-------------------------------------------------------------|
---------------------------------------------------&-*-------|
-------3----------5(6)5-------3----------3---------5(6)5-----|
-5---------------------------------5-------------------------|
-------------------------------------------------------------|
-------------------------------------------------------------|
(Guitar 2) (Tacet First Time Through Intro and During Verses)
(Last Time Before Verse, Stop at *; Last Time Before Ending,
Stop at &)

     A
-------------------------------------------------------------|
-3-3-5-------------------------------------------------------|
-3-3-5-------------------------------------------------------|
-3-3---------------------------------------------------------|
-1-1---------------------------------------------------------|
-------------------------------------------------------------|
(Guitar 1)
-------------------------------------------------------------|
-------------------------------------------------------------|
---3---------------------------------------------------------|
-------------------------------------------------------------|
-------------------------------------------------------------|
-------------------------------------------------------------|
(Guitar 2)


Chorus:
 F#               A                F#               A
-3-3-X-3-X-3-3-3--6-6-X-6-X-6-6-6--3-3-X-3-X-3-3-3--6-6-X-6--|
-3-3-X-3-X-3-3-3--6-6-X-6-X-6-6-6--3-3-X-3-X-3-3-3--6-6-X-6--|
-4-4-X-4-X-4-4-4--7-7-X-7-X-7-7-7--4-4-X-4-X-4-4-4--7-7-X-7--|
-5-5-X-5-X-5-5-5--8-8-X-8-X-8-8-8--5-5-X-5-X-5-5-5--8-8-X-8--|
-------------------------------------------------------------|
-------------------------------------------------------------|
(Guitars 1 and 3) (Guitar 2 Tacet)

         B     C#  A  C#  A  C#  A
-X-6-6-6-----------6------6------6---------------------------|
-X-6-6-6-5-5-5-7-7-6--7-7-6--7-7-6---------------------------|
-X-7-7-7-5-5-5-7-7-7--7-7-7--7-7-7---------------------------|
-X-8-8-8-5-5-5-7-7-8--7-7-8--7-7-8---------------------------|
---------3-3-3-5-5----5-5----5-5-----------------------------|
-------------------------------------------------------------|
(Guitars 1 and 3)


Solo:
 B                A                 B             A
-------------------------------------------------------------|
-4-4-4-7-7-7-4--------------4-4-4---4-4-4-7-7-7-4------------|
---------------5--5-3---3-5-----------------------5-3-3-3-3--|
----------------------5--------------------------------------|
-------------------------------------------------------------|
-------------------------------------------------------------|
(Guitar 3) (Guitar 1 Plays the Same as During the Verse Four
Times; The Fourth Time Through Guitar 1 Does Not Play the A
Chord Change)

           B         A         B             N.C.
-------------------------------------------------------------|
---4-4-4---3-5-5-5-5-5p3-3-3-3-------------------------------|
-5-----------------------------5-5-5-5-5-5-3-5(6)-(6)-(6)----|
-------------------------------------------------------------|
-------------------------------------------------------------|
-------------------------------------------------------------|
(Guitar 3)

-------------------------------------------------------------|
-------------------------------------------------------------|
-(6)5-3------------------------------------------------------|
-------------------------------------------------------------|
-------------------------------------------------------------|
-------------------------------------------------------------|
(Guitar 3)


Ending:
 B
-------------------------------------------------------------|
-5-----------------------------------------------------------|
-5-----------------------------------------------------------|
-5-----------------------------------------------------------|
-3-----------------------------------------------------------|
-------------------------------------------------------------|
(Guitar 1)
-------------------------------------------------------------|
-------------------------------------------------------------|
-------------------------------------------------------------|
-5-----------------------------------------------------------|
-------------------------------------------------------------|
-------------------------------------------------------------|
(Guitar 2)

-----------------------------------------------------------------------------
10. Execution Style

(4/4 Time) (Tuning [Low to High]: Eb Ab Db Gb Bb Eb) Intro:
 N.C.
-------------------------------------------------------------|
-------------------------------------------------------------|
-------------------------------------------------------------|
-7(10)-------------------------------------------------------|
-------------------------------------------------------------|
-------------------------------------------------------------|
(Guitar 1)
-------------------------------------------------------------|
-------------------------------------------------------------|
-----------5-7(8)-(8)7-5-------------------------------------|
---------7---------------------------------------------------|
-------------------------------------------------------------|
-------------------------------------------------------------|
(Guitar 2)


Verse:
 N.C.
-------------------------------------------------------------|
-------------------------------------------------------------|
---------------5-----------------------7-5-------------------|
-7-5-7-5-7-5-5-----------7-5-7-5-7-5-5-----------------------|
-------------------------------------------------------------|
-------------------------------------------------------------|
(Guitar 1) (Both Guitars Repeat Once Simile Then Play Below)
-------------------------------------------------------------|
-------------------------------------------------------------|
---------------5--7(8)-----------------7-5--7(8)7-5----------|
-7-5-7-5-7-5-5-----------7-5-7-5-7-5-5-----------------------|
-------------------------------------------------------------|
-------------------------------------------------------------|
(Guitar 2)

 Ab      B    Ab      C#B
-------------------------------------------------------------|
-------------------------------------------------------------|
---------5-5----------7-5------------------------------------|
-7-7-7-7-5-5--7-7-7-7-7-5------------------------------------|
-7-7-7-7-3-3--7-7-7-7-5-3------------------------------------|
-5-5-5-5------5-5-5-5----------------------------------------|
(Guitars 1 and 2) (Repeat This Line Once)


Chorus:
 C#      Ab       C#      A   B  Ab
-------------------------------------------------------------|
--------------------------------*----------------------------|
-7-7-7-7----------7-7-7-7-----5-5----------------------------|
-7-7-7-7-7-7-7-7--7-7-7-7-8-8-5-5-7-7-7-7-7-7-7-7------------|
-5-5-5-5-7-7-7-7--5-5-5-5-8-8-3-3-7-7-7-7-7-7-7-7------------|
---------5-5-5-5----------6-6-----5-5-5-5-5-5-5-5------------|
(Guitars 1 and 2) (On Occasion, Guitar 2 Only Plays the Top
Note of the Chord) (During Ending, Guitar 2 Plays Until * and
then Once All the Way Through)


Interlude:
 N.C.
-------------------------------------------------------------|
---------X-X-X-X-X-X-X-X---X-X-X-X-X-X-X-X---X-X-X-X-X-X-X-X-|
---------X-X-X-X-X-X-X-X---X-X-X-X-X-X-X-X---X-X-X-X-X-X-X-X-|
---------X-X-X-X-X-X-X-X---X-X-X-X-X-X-X-X---X-X-X-X-X-X-X-X-|
-------------------------------------------------------------|
-------------------------------------------------------------|
(Guitar 1 w/wah)
-------------------------------------------------------------|
----------------------------------------------8(10)8---6-----|
-5h7-----7(8)7-5-7-5-----------------------------------------|
-------------------------------------------------------------|
-------------------------------------------------------------|
-------------------------------------------------------------|
(Guitar 2)

-------------------------------------------------------------|
-X-X-X-X-X-X-X-X---X-X-X-X-X-X-X-X-X-X-X-X-X-X-X-X-X-X-X-X-X-|
-X-X-X-X-X-X-X-X---X-X-X-X-X-X-X-X-X-X-X-X-X-X-X-X-X-X-X-X-X-|
-X-X-X-X-X-X-X-X---X-X-X-X-X-X-X-X-X-X-X-X-X-X-X-X-X-X-X-X-X-|
-------------------------------------------------------------|
-------------------------------------------------------------|
(Guitar 1)
---6-7-6-----------------------------------------------------|
-8-------7---------8p6-5---5(6)--------------------6-5-------|
-------------------------7-----------------------------7-5---|
-------------------------------------------------------------|
-------------------------------------------------------------|
-------------------------------------------------------------|
(Guitar 2)

-------------------------------------------------------------|
-X-X-X-X-X-X-X-X-X-X-X-X-X-----------------------------------|
-X-X-X-X-X-X-X-X-X-X-X-X-X-----------------------------------|
-X-X-X-X-X-X-X-X-X-X-X-X-X-----------------------------------|
-------------------------------------------------------------|
-------------------------------------------------------------|
(Guitar 1) (Then Both Guitars Play Noise w/wah)
-------------------------------------------------------------|
-------------------------------------------------------------|
-7(9)7-------------------------------------------------------|
-------------------------------------------------------------|
-------------------------------------------------------------|
-------------------------------------------------------------|
(Guitar 2)


Ending:
 C#          Ab           C#        A   B        C#
-------------------------------------------------5~-5~-5~-5~-|
----------------------------5--------------------------------|
-7-7-7-7-7-7-7-7-7-7-7-7--7---7-5---5-7-7-7-7-7--------------|
----------------------------------7--------------------------|
-------------------------------------------------------------|
-------------------------------------------------------------|
(Guitar 2) (Guitar 1 Plays the Same as During the Chorus
Twice, with the Exception Stated Above)

 Ab            C#      A     B     Ab
-5~-5~-5~-5~-----5-6p5---------------------------------------|
---------------8-------8-5-5-8-5-5---------------------------|
-------------------------------------------------------------|
-----------------------------------7-7-7-7-7-7-7-------------|
-----------------------------------7-7-7-7-7-7-7-------------|
-----------------------------------5-5-5-5-5-5-5-------------|
(Guitar 2)
-----------------------------------------------------------------------------
11. Dissolve

(4/4 Time) (Tuning [Low to High]: Eb Ab Db Gb Bb Eb)
Intro/Verse:
------------------------------------------------0------------|
------------------------------------------------0------------|
-------------------------------------------------------------|
---2---2---2---4---5---5-2----2-2---2---5-4*------2----------|
-0---0---0---0---0---0------0-----0---0----------------------|
--------------------------------------------0-0--------------|
(Guitar 1) (*=Slight Bend) (Guitar 2 Plays Feedback)
---0---------------------------------------------------------|
-------------------------------------------------------------|
-2-----------------------------------------------------------|
-------------------------------------------------------------|
-------------------------------------------------------------|
-------------------------------------------------------------|
(Guitar 2) (Play First Above Note at the Start of the Second
Time; Play Second Above Note at the Start of the Third Time.
Play Feedback all Other Times)

--------------------------------------------------%----------|
----------------------------------0-0-0-0-0------------------|
------------------------------2-2-2/5-4-2-2(3)2^0------------|
---2---2---2---4---5---5-2------------------------2-2-2-2-2--|
-0---0---0---0---0---0------0---------------------2-2-2-2-2--|
--------------------------------------------------0-0-0-0-0--|
(Guitar 1)

-------------------------------------------------------------|
-------------------------------------------------------------|
-------------------------------------------------------------|
-2-2-2-------------------------------------------------------|
-2-2-2-------------------------------------------------------|
-0-0-0-------------------------------------------------------|
(Guitar 1)


Fill 1:
 Eb
-------------------------------------------------------------|
-------------------------------------------------------------|
---0------0-----0-2(3)2-0------------------------------------|
-2----0-2---0-2----------------------------------------------|
-------------------------------------------------------------|
-------------------------------------------------------------|
(Guitar 1) (In Place of End of First Verse Starting at %)


Fill 2:
 Eb
-------------------------------------------------------------|
---------------0-1-3-3(4)3-0---------------------------------|
---0------0-/2-----------------------------------------------|
-2----0-2----------------------------------------------------|
-------------------------------------------------------------|
-------------------------------------------------------------|
(Guitar 1) (In Place of End of Second Verse Starting at %)


Fill 3:
 Eb
-------------------------------------------------------------|
--------------------1----------------------------------------|
---0------0-----0-2---2--------------------------------------|
-2----0-2---0-2----------------------------------------------|
-------------------------------------------------------------|
-------------------------------------------------------------|
(Guitar 1) (In Place of End of Third Verse Starting at %)


Fill 4:
 Eb                          A
-------------------------------------------------------------|
---------------0-1-3-3(4)3-0---------------------------------|
---0------0-/2---------------2-------------------------------|
-2----0-2--------------------2-------------------------------|
-----------------------------0-------------------------------|
-------------------------------------------------------------|
(Guitar 1) (In Place of End of Ending Starting at %)


Chorus:
 Ab              B               Ab              B   Eb
-------------------------------------------------------------|
-------------------------------------------------------------|
-2-2-2-2-2-2-2-2-5-5-5-5-5-5-5-5-2-2-2-2-2-2-2-2-5-5---------|
-2-2-2-2-2-2-2-2-5-5-5-5-5-5-5-5-2-2-2-2-2-2-2-2-5-5-2-2-2---|
-0-0-0-0-0-0-0-0-3-3-3-3-3-3-3-3-0-0-0-0-0-0-0-0-3-3-2-2-2---|
-----------------------------------------------------0-0-0---|
(Guitars 1 and 2)

 Ab              B               Db
-------------------------------------------------------------|
-------------------------------------------------------------|
-2-2-2-2-2-2-2-2-5-5-5-5-5-5-5-5-7-7-7-7-7-7-7-7-7-7-7-7-7-7-|
-2-2-2-2-2-2-2-2-5-5-5-5-5-5-5-5-7-7-7-7-7-7-7-7-7-7-7-7-7-7-|
-0-0-0-0-0-0-0-0-3-3-3-3-3-3-3-3-5-5-5-5-5-5-5-5-5-5-5-5-5-5-|
-------------------------------------------------------------|
(Guitars 1 and 2)

     Eb   Ab@
-------------------------------------------------------------|
----------@-@------------------------------------------------|
-7-7------2-2------------------------------------------------|
-7-7-2----2-2------------------------------------------------|
-5-5-2----0-0------------------------------------------------|
-----0-------------------------------------------------------|
(Guitar 1) (@=w/Vibrato Bar)
-------------------------------------------------------------|
-------------------------------------------------------------|
-7-7---------------------------------------------------------|
-7-7-2-------------------------------------------------------|
-5-5-2-------------------------------------------------------|
-----0-------------------------------------------------------|
(Guitar 2)
-----------------------------------------------------------------------------
12.  1995

(4/4 Time) (Tuning [Low to High]: Eb Ab Db Gb Bb Eb)
Intro/Verse #1:
Eb F    Eb F    Eb F              Eb    F
-------------------------------------------------------------|
-------------------------------------------------------------|
-------------------------------------------------------------|
-9/11-11-9/11-11-9/11-11-11-11-11--9--9-11-------------------|
-7/9--9--7/9--9--7/9--9--9--9--9---7--7-9--------------------|
-------------------------------------------------------------|
(Guitar 1) (Repeat 7 Times)
-------------------------------------------------------------|
-------------------------------------------------------------|
-------------------------------------------------------------|
-----------------------------------2--2-4--------------------|
-----------------------------------2--2-4--------------------|
-----------------------------------0--0-2--------------------|
(Guitar 2) (Joins in Second Time Through)

Eb F    Eb F    Eb F              Eb    F
-------------------------------------------------------------|
-------------------------------------------------------------|
-----------------*-------------------------------------------|
------------7-9(10)9--------7------2--2-4--------------------|
-7h9--9-7-9------------------------2--2-4--------------------|
-----------------------------------0--0-2--------------------|
(*=Note Bent to is Slightly Higher Than 10)

Eb F    Eb F    Eb F              Eb    F
-------------------------------------------------------------|
-------------------------------------------------------------|
-------------------------------------------------------------|
--------9-9(10)----7~--------------2--2-4--------------------|
-7h9--7----------------------------2--2-4--------------------|
-----------------------------------0--0-2--------------------|

Eb F    Eb F    Eb F              Eb    F
-------------------------------------------------------------|
-------------------------------------------------------------|
-------------------------------------------------------------|
-------------------------7---------2--2-4--------------------|
-7h9--9--7h9--9--7h9--9------------2--2-4--------------------|
-----------------------------------0--0-2--------------------|
(Guitar 2) (Repeat Only the Above Measure 3 Times)


Chorus:
 Db    Eb        Bb        Db    C Bb
-------------------------------------------------------------|
-------------------------------------------------------------|
-7-7-7-9-9-9-9-9-4-4-4-4-4-7-7-7-6-4-4-4-4-4-4-4-4-4-4-4-4-4-|
-7-7-7-9-9-9-9-9-4-4-4-4-4-7-7-7-6-4-4-4-4-4-4-4-4-4-4-4-4-4-|
-5-5-5-7-7-7-7-7-2-2-2-2-2-5-5-5-4-2-2-2-2-2-2-2-2-2-2-2-2-2-|
-------------------------------------------------------------|

 Db    C Bb               Db    C Bb
-------------------------------------------------------------|
-------------------------------------------------------------|
-7-7-7-6-4----4-4-4-4-4-4-7-7-7-6-4-4-4-4-4-4-4-4-4-4-4-4-4--|
-7-7-7-6-4----4-4-4-4-4-4-7-7-7-6-4-4-4-4-4-4-4-4-4-4-4-4-4--|
-5-5-5-4-2----2-2-2-2-2-2-5-5-5-4-2-2-2-2-2-2-2-2-2-2-2-2-2--|
-------------------------------------------------------------|

 Db    C Bb
-------------------------------------------------------------|
-------------------------------------------------------------|
-7-7-7-6-4---------------------------------------------------|
-7-7-7-6-4---------------------------------------------------|
-5-5-5-4-2---------------------------------------------------|
-------------------------------------------------------------|


Verse #2:
Eb F    Eb F    Eb F              Eb    F
-------------------------------------------------------------|
-------------------------------------------------------------|
-------------------------------------------------------------|
-------------------9(10)(9)(10)----2--2-4--------------------|
-7h9--9--7h9--9--7-----------------2--2-4--------------------|
-----------------------------------0--0-2--------------------|
(Guitar 2) (Guitar 2 Substitutes This For the First 2
Measures of Intro/Verse 1; Verse 2 is Only 6 Measures Long)
(Guitar 1 Plays Same as Intro/Verse 1 6 Times)

Eb F    Eb F    Eb F              Eb    F
-------------------------------------------------------------|
-------------------------------------------------------------|
-------------------------------------------------------------|
---------7-9-9(10)-(10)9-7---------2--2-4--------------------|
-7h9--9----------------------------2--2-4--------------------|
-----------------------------------0--0-2--------------------|


Solo:
-------------------------------------------------------------|
----------------*--------------------------------------------|
-9(11)-(11)9~---6--------------7---9(11)--9(11)9-7-7---------|
------------------9-7-9-7h9--9---9---------------------------|
-------------------------------------------------------------|
-------------------------------------------------------------|
(Guitar 2) (Guitar 1 Plays Same as Intro Starting at *)

-------------------------------------------------------------|
---------------------------------------%---------------------|
----7-6-6-7-6--------7-9-9(11)-9(11)--(11)9-7----------------|
--------------9-9--9--------------------------9-9------------|
-10----------------------------------------------------------|
-------------------------------------------------------------|
(Guitar 2 Begins Using Wah at %) (Enter Saxophone) (Guitars 1
and 2 Descend into Noise)


Ending:
      Eb F    Eb F    Eb F
-------------------------------------------------------------|
-------------------------------------------------------------|
-9(11)-------------------------------------------------------|
-------------------------------------------------------------|
-------7h9--9--7h9--9--7h9--9--9--9--9--9--------------------|
-------------------------------------------------------------|
(Guitar 2) (Then More Noise)
-------------------------------------------------------------|
-------------------------------------------------------------|
-------9/11-11-9/11-11-9/11-11-11-11-11-11-------------------|
-------9/11-11-9/11-11-9/11-11-11-11-11-11-------------------|
-------7/9--9--7/9--9--7/9--9--9--9--9--9--------------------|
-------------------------------------------------------------|
(Guitar 1) (Then More Noise)
Добавлено: 22.06.2013
Другие материалы по этой песне:
  • Аккорды и текст

Страница создана 22.06.2013
http://primanota.ru/mudhoney/my-brother-the-cow-chords.htm
Привет, Гость.
Предлагаем пройти революционный курс по гитаре.
Подарок от PrimaNota.Ru, забирай!