PrimaNota.ru - самый крупный в мире бесплатный архив песенных текстов, аккордов, табулатур и нот


Mudhoney - Crankcase Blues - текст песни, таба, бас-таба, видео

Регистрация Запомнить меня
Войти через:  Facebook Google Twitter Vk Yandex Mail.ru

Mudhoney - Crankcase Blues - текст песни, таба, бас-таба, видео

Печатать
Просмотров: 68
Sorry if there are any mistakes i tabbed it out in less then 5 mins lol. It was the 
time i heard the song and i liked it so i made a quit tab for it.

Intro
e--7--7-----7--7--7--7--7--7--7---------5--5--5--5-----5--5-----5--5-----5----5~
B--7--7-----7--7--7--7--7--7--7---------5--5--5--5-----5--5-----5--5-----5----5~
G--8--8-----8--8--8--8--8--9--8---------6--6--6--6-----6--6-----6--6-----6----6~
D--9--9-----9--9--9--9--9--9--9---------7--7--7--7-----7--7-----7--7-----7----7~
A--9--9-----9--9--9--9--9--9--9---------7--7--7--7-----7--7-----7--7-----7----7~
E--7--7-----7--7--7--7--7--7--7---------5--5--5--5-----5--5-----5--5-----5----5~
B                          Bsus              A
e---------------------------------------------|
B---------------------------------------------|
G-------------------2-------4b~~~~------2~~~--|
D------4~~~-----------------------------------|
A---------------------------------------------|
E---------------------------------------------|
	This is the riff played over the intro.

e---2--2----2--2--2--2----2--2--2--2----x--x----x--x--x--x-----x--x--x--x-|
B---2--2----2--2--2--2----2--2--2--2----2--2----2--2--2--2-----2--2--2--2-|
G---3--3----3--3--3--3----3--3--3--3----2--2----2--2--2--2-----2--2--2--2-|
D---4--4----4--4--4--4----4--4--4--4----2--2----2--2--2--2-----2--2--2--2-|
A---4--4----4--4--4--4----4--4--4--4----0--0----0--0--0--0-----0--0--0--0-|
E---2--2----2--2--2--2----2--2--2--2---x---x----x--x--x--x-----x--x--x--x-|
F#				A
	(Got a broke down engine, but you
Добавлено: 12.08.2013
Другие материалы по этой песне:
  • Аккорды и текст

Страница создана 23.02.2012
http://primanota.ru/mudhoney/crankcase-blues-chords.htm
Привет, Гость.
Предлагаем пройти революционный курс по гитаре.
Подарок от PrimaNota.Ru, забирай!