PrimaNota.ru - самый крупный в мире бесплатный архив песенных текстов, аккордов, табулатур и нот


Mudhoney - Come To Mind - текст песни, таба, видео

Регистрация Запомнить меня
Войти через:  Facebook Google Twitter Vk Yandex Mail.ru

Mudhoney - Come To Mind - текст песни, таба, видео

Печатать
Просмотров: 97
Авторы музыки: Matt Lukin, Dan Peters, Mark Arm, Steve Turner
Авторы текста: Mark Arm
Come to Mind By Mudhoney
(played with two guitars)

Intro/Verse:

-0----0--0-0---------00------------------------------------------------------|
-0----0--0-0---------00------------------------------------------------------|
-1----1--1-1---------00------------------------------------------------------|
-2----2--2-2---------00------------------------------------------------------|
-2----2--2-2---------22------------------------------------------------------|
-0----0--0-0---1~2~3-33------------------------------------------------------|guitar1(Repeat Four Times)

---3--3--3-3-3-3-3-3-3----3-3-3-3-3-3-3-3-3-3-3-3-0-------------------------|
---0--0--0-0-0-0-0-0-0----0-0-0-0-0-0-0-0-0-0-0-----3-0---0--0-0---0---0-0--|
----------------------------------------------------------------------------|
----------------------------------------------------------2--2-2---2---2-2--|
----------------------------------------------------------------------------|
----------------------------------------------------------------------------|
Guitar 2 (comes in Fifth Time Through) (Repeat One time)

----------3-3-3-------------------------------------------------------------|
-0---0-0--0-0-0-0---0-0-----------------------------------------------------|
----------------------------------------------------------------------------|
-2---2-2--------2---2-2-----------------------------------------------------|
----------------------------------------------------------------------------|
----------------------------------------------------------------------------|

Chorus:
----------------------------------------------------------------------------|
----------------------------------------------------------------------------|
-5--5-5-5-5--5-5-5-5-5-5-7--7-7-7-7-7-7-7-7-7-7-----------------------------|
-5--5-5-5-5--5-5-5-5-5-5-7--7-7-7-7-7-7-7-7-7-7-----------------------------|
-3--3-3-3-3--3-3-3-3-3-3-5--5-5-5-5-5-5-5-5-5-5-----------------------------|
----------------------------------------------------------------------------|
(Guitar 1)
------------------------------------------3-0-------------------------------|
----------------------------------------------3-0-0-------------------------|
-5--5-5-5-5--5-5-5-5-5-5-7--7-7-7-7-7-7-7-----------------------------------|
-5--5-5-5-5--5-5-5-5-5-5-7--7-7-7-7-7-7-7-----------------------------------|
-3--3-3-3-3--3-3-3-3-3-3-5--5-5-5-5-5-5-5-----------------------------------|
----------------------------------------------------------------------------|
(Guitar 2)

----------------------------------------------------------------------------|
----------------------------------------------------------------------------|
-2-2-2-2-2-2-2-2-2-2-2-2-2-2-2-2--------------------------------------------|
-2-2-2-2-2-2-2-2-2-2-2-2-2-2-2-2--------------------------------------------|
-0-0-0-0-0-0-0-0-0-0-0-0-0-0-0-0--------------------------------------------|
----------------------------------------------------------------------------|
(Guitar 1) (Both Guitars Repeat Once)
----------------------------------------------------------------------------|
-------------------------------3(5)-----------------------------------------|
-2-----2---------2-----2----------------------------------------------------|
-2-----2---------2-----2----------------------------------------------------|
-0-----0---------0-----0----------------------------------------------------|
----------------------------------------------------------------------------|
(Guitar 2)


Solo:
 -5-5-5-5-5-5-5-5-5-5-5-5-----------------------------------------------------|
-----------------------------------------------------------------5------------|
-------------------------7~--5---5--5-5-7~--7-5-7-7(9)~--7-5-5-5-5-7(9)~(9)---|
-------------------------------7----------------------------------------------|
------------------------------------------------------------------------------|
------------------------------------------------------------------------------|
(Guitar 1) (Guitar 2 Plays the Same as During the
Intro)

------------------------------------------------------------------------12--|
---------------/9--9-9---9-9-9-12-12-12-12-12-12-10--8h10p8---8----8-12-12--|
-(9)7p5-7-7-5--/9--------9-9-9-12-12-12-12-12-12------------9---9-----------|
----------------------------------------------------------------------------|
----------------------------------------------------------------------------|
----------------------------------------------------------------------------|
(Guitar 1)

-12-12-15(16)-12-12---------------------------------------------------------|
-12-12--------12-12------------------14-14-12\--9-9-9-9\--------------------|
---------------------14(16)-12h14p12-14-14-12\--9-9-9-9\---9--9\-9-9-9-9-9--|
-----------------------------------------------------------------9-9-9-9-9--|
----------------------------------------------------------------------------|
----------------------------------------------------------------------------|
(Guitar 1)

-----2(3)-------------------------------------------------------------0-5-5-|
----------4------------------------------------------4p1-4-4---4-1----------|
-9----------4-2-2-2-4-2(4)~---2(4)-(4)2-0--------/5----------------4--------|
-9----------------------------------------2--2-2----------------------------|
----------------------------------------------------------------------------|
----------------------------------------------------------------------------|
(Guitar 1)

-5-5-5-5-5-5--/9-9-9-9\--/9-9-9-9-9---9--9--9-------------------------------|
--------------/9---------/9-9-9-9-9--10-10-10-8----8---8-10-10-8---10-10----|
-------------------------------------------------9---9-----------9----------|
----------------------------------------------------------------------------|
----------------------------------------------------------------------------|
----------------------------------------------------------------------------|
(Guitar 1)

-----------------12-12-12-12-12-12-----3-3-3-0------5-5-5-5-5---------------|
-10(12)10-8-8-8--12-12-12-12-12-12-----0-0-0-0------0-0-0-0-0--3(5)-3(5)-3--|
-------------------------------------0----------0-0-------------------------|
----------------------------------------------------------------------------|
----------------------------------------------------------------------------|
----------------------------------------------------------------------------|
(Guitar 1)

-------------------2h3-3--0-------------5-3-5-3-5~---3-5-7(9)~--5-----------|
-0---0-3--3-0--2h3----------3-3--3-0-3----------------------------8-8~------|
---2------------------------------------------------------------------------|
----------------------------------------------------------------------------|
----------------------------------------------------------------------------|
----------------------------------------------------------------------------|
(Guitar 1)

-0-0-0---0--3-3-3-3--3-3-3-3-3-3-3-3-3-3-3-0------3(4)-3(4)-3(4)-3-0---0----|
-5-5-5--/5--5-5-5-5--0-0-0-0-0-0-0-0-0-0-----3-0--0----0----0--------3---3--|
----------------------------------------------------------------------------|
----------------------------------------------------------------------------|
----------------------------------------------------------------------------|
----------------------------------------------------------------------------|
(Guitar 1)

-3(4)(4)(4)-------------------------------0---------------------------------|
-0----0--0----------------------------10--8--------8--10(11)-12-10(11)10-8--|
------------/9-9-9p7-9-9p7---9-9h7-7---------9-9-9--------------------------|
---------------------------9------------------------------------------------|
----------------------------------------------------------------------------|
----------------------------------------------------------------------------|

----------------------------------------------------------------------------|
--------------------------------------10(12)~--8--12(14)~-------------------|
-9---9-9-9--10--9(10)9--9(10)9--12-12----------9----------------------------|
----------------------------------------------------------------------------|
----------------------------------------------------------------------------|
----------------------------------------------------------------------------|
(Guitar 1)


Ending:
 (Guitar 1)
----------------------------------------------------------------------------|
----------------------------------------------------------------------------|
----------------------------------------------------------------------------|
-2--------------------------------------------------------------------------|
-2--------------------------------------------------------------------------|
-0--------------------------------------------------------------------------|
(Guitar 2)
----------------------------------------------------------------------------|
----------------------------------------------------------------------------|
-7(9)----(8)-----(9)----7\4-------------------------------------------------|
----------------------------------------------------------------------------|
----------------------------------------------------------------------------|
----------------------------------------------------------------------------|
Добавлено: 10.07.2013
Другие материалы по этой песне:
  • Аккорды и текст

Страница создана 20.05.2012
http://primanota.ru/mudhoney/come-to-mind-chords.htm
Привет, Гость.
Предлагаем пройти революционный курс по гитаре.
Подарок от PrimaNota.Ru, забирай!