PrimaNota.ru - самый крупный в мире бесплатный архив песенных текстов, аккордов, табулатур и нот


Muddy Waters - I Just Want To Make Love To You - текст песни, таба, видео

Регистрация Запомнить меня
Войти через:  Facebook Google Twitter Vk Yandex Mail.ru

Muddy Waters - I Just Want To Make Love To You - текст песни, таба, видео

Печатать
Просмотров: 96


  I Just Want to make Love to You
    From Electric Mud


  INTRO
 ---------------------------------
 ---------------------------------
 ---------------------------------
 --7-7----5-6-X-7-7----5-6-X-7-7--
 --7-7----5-6-X-7-7----5-6-X-7-7--
 --5-5----3-4-X-5-5----3-4-X-5-5--


 VERSE
 ---------------------------------------------repeat
 ---------------------------------------------many
 ---------------------------------------------times
 --7-7-10--XX-7--5-6--X-7-7-10--XX-7--5-6--X--
 --7-7-10--XX-7--5-6--X-7-7-10--XX-7--5-6--X--
 --5-5-8---XX-5--3-4--X-5-5-8---XX-5--3-4--X--


 CHORUS FILL
 ---------------------------
 ---------------------------
 ---------------------------
 --/7~-5--------------------
 --------7-6-5--------------
 --------------8~-5-3-5~~~--


 Bridge (I really doubt that this is right)
 ----------------------------------repeat
 ----------------------------------once or
 ----------------------------------twice
 --7-7-7-7-7//--7-7-7-7-7//--
 --7-7-7-7-7//--7-7-7-7-7//--
 --5-5-5-5-5//--5-5-5-5-5//--

Добавлено: 26.08.2013
Вам также может быть интересно:
Другие материалы по этой песне:
  • Аккорды и текст

Страница создана 26.08.2013
http://primanota.ru/muddy-waters/i-just-want-to-make-love-to-you-chords.htm
Привет, Гость.
Предлагаем пройти революционный курс по гитаре.
Подарок от PrimaNota.Ru, забирай!