PrimaNota.ru - самый крупный в мире бесплатный архив песенных текстов, аккордов, табулатур и нот


Mud Flow - The sense of 'me' - текст песни, таба, видео

Регистрация Запомнить меня
Войти через:  Facebook Google Twitter Vk Yandex Mail.ru

Mud Flow - The sense of 'me' - текст песни, таба, видео

Печатать
Просмотров: 390
-------------------------------------------------------------------------------
              The Sense of Me - Mud flow (Life is Strange Soundtrack)
-------------------------------------------------------------------------------

Tabbed by: imjeans (sarah)

[Tab Version 1]

Tuning: Original

Song: https://www.youtube.com/watch?v=mqxqC4xrDfQ 

Chords: Dm, F

Intro

e|---------------------------------------------------------------------------|
B|----------6----------------5-------------------3---------------------------|
G|------7----------------5------------------3--------------------7-----------|
D|--7---------------7-----------------5---------------------7----------------|
A|---------------------------------------------------------------------------|
E|---------------------------------------------------------------------------|

e|----------------------------5-------------------3--------------------------|
B|----------6----------------------------------------------------------6-----|
G|------7----------------5------------------3--------------------7-----------|
D|--7---------------7------------------5------------------7------------------|
A|---------------------------------------------------------------------------|
E|---------------------------------------------------------------------------|

e|---------------------------------------------------------------------------|
B|----------6----------------5-------------------3---------------------------|
G|------7----------------5------------------3--------------------7-----------|
D|--7---------------7-----------------5---------------------7----------------|
A|---------------------------------------------------------------------------|
E|---------------------------------------------------------------------------|

e|--------------------------5--------------------3--------------------------------|
B|----------6-------------------------------------------------6--5--6--5--6--5-6--|
G|------7----------------5------------------3-------------------------------------|
D|--7---------------7-----------------5------------------7------------------------|
A|--------------------------------------------------------------------------------|
E|--------------------------------------------------------------------------------|

Chorus

e|------------------------------------|
B|-------6---------5------------------|
G|------------7-----------------------|
D|--7---------------------------------|
A|------------------------------------|
E|------------------------------------|  x4

e|-----------------5------------------|     e|---------------|
B|-------6----------------------------|     B|---6------5----|
G|------------7-----------------------|     G|-------7-------|
D|--7---------------------------------|     D|---------------|
A|------------------------------------|     A|---------------|
E|------------------------------------| x3  E|---------------|


e|------------3-------------|
B|---------3----------------|
G|------3-------------------|
D|--5-----------------------|
A|--------------------------|
E|--------------------------|  x4 

e|--------------------------------5------------------|     
B|-------6---------5------6------------6-------5-----|   
G|------------7---------------7------------7---------|   
D|--7------------------------------------------------|     
A|---------------------------------------------------|   
E|---------------------------------------------------| 

repeat chorus 

-----------------------------------------------------------------------------

[Tab Version 2]

Easier Capo Version Plus Tuning below

Tuning: EADF#AC# Capo 4th fret

Main chord shape (simple F chord): http://chordworkshop.com/chord_images/fmaj7.gif
fourth finger on 3rd b string or 4th fret e string when needed.

Secondary chord shape: first finger on first fret d string, 
second finger on first fret b string, third finger may be needed on second fret e string.

e|-----------0---------------------------------------------------------------|
B|------1---------------------3-------------------1---------------1----------|
G|-----------------------2------------------0--------------------------------|
D|--3---------------3-----------------1---------------------3----------------|
A|---------------------------------------------------------------------------|
E|---------------------------------------------------------------------------|

e|-------------0--------------4-------------------2--------------------0-----|
B|-------1-------------------------------------------------------1-----------|
G|-----------------------2------------------0--------------------------------|
D|--3---------------3------------------1------------------3------------------|
A|---------------------------------------------------------------------------|
E|---------------------------------------------------------------------------|

e|-----------0---------------------------------------------------------------|
B|------1---------------------3-------------------1---------------1----------|
G|-----------------------2------------------0--------------------------------|
D|--3---------------3-----------------1---------------------3----------------|
A|---------------------------------------------------------------------------|
E|---------------------------------------------------------------------------|

e|-------------0--------------4--------------2--------0-------0-------0--------0--|
B|-------1------------------------------------------------3-------3-------3-------|
G|-----------------------2--------------0-----------------------------------------|
D|--3---------------3--------------1-------------3--------------------------------|
A|--------------------------------------------------------------------------------|
E|--------------------------------------------------------------------------------|


Chorus [Version 1]: (slightly slower) 

hold main chord shape

e|--------0-----------0-----------0----------0-------------------0------------|
B|------------1---3--------1---3------1---3-------1----3----------------------|
G|----------------------------------------------------------------------------|
D|---3--------------------------------------------------------3---------------|
A|----------------------------------------------------------------------------|
E|----------------------------------------------------------------------------|

move third finger to 3rd fret b string, fourth finger to 4th fret e string

e|-------------4-----------------4-------------------4-------------------------|
B|-------------------3------------------3--------------------3----------3------|
G|------2-------------------2------------------2--------------------2----------|
D|-----------------------------------------------------------------------------|
A|-----------------------------------------------------------------------------|
E|-----------------------------------------------------------------------------|

e|--------------2-----------------2----------------2------------------2------------|
B|----------(1)--------1-----------------1-----------------1-----------------------|
G|--------0-----------------0------------------0----------------0------------------|
D|---1-----------------------------------------------------------------------------|
A|---------------------------------------------------------------------------------|
E|---------------------------------------------------------------------------------|

e|--------0----------------0-------4------0-----------------------------------|
B|-------------1---3----------1---------------1----3--------------------------|
G|----------------------------------------------------------------------------|
D|---3------------------------------------------------------------------------|
A|----------------------------------------------------------------------------|
E|----------------------------------------------------------------------------|

repeat chorus

Chorus [Version 2]: (slightly faster)

e|--------0--------------------|
B|------------1---3------------|
G|-----------------------------|
D|---3-------------------------|
A|-----------------------------|
E|-----------------------------|  (play 4 times)

e|----0---------4------0-----------4-------0-------4------------------------|
B|---------------------------------------------------------3-----3----------|
G|--------2-----------------2-----------------2---------------2-------------|
D|-3---------------3-------------------3------------------------------------|
A|--------------------------------------------------------------------------|
E|--------------------------------------------------------------------------|

e|----------------2---|
B|------------1-------|
G|--------0-----------|
D|---1----------------|
A|--------------------|
E|--------------------|(play 4 times)

e|--------0----------------0-------4------0-----------------------------------|
B|-------------1---3----------1---------------1----3--------------------------|
G|----------------------------------------------------------------------------|
D|---3------------------------------------------------------------------------|
A|----------------------------------------------------------------------------|
E|----------------------------------------------------------------------------|

repeat chorus


-------------------------------------------------------------------

Backing guitar (no capo or tuning needed)

e|-----------------------------|
B|-----6-----6-----------------|
G|-----------------7-----------|
D|-----------------------------|
A|-----------------------------|
E|-----------------------------| 

repeat
Добавлено: 10.05.2016
Другие материалы по этой песне:
  • Аккорды и текст

Страница создана 30.10.2014
http://primanota.ru/mud-flow/sense-of-me-chords.htm
Привет, Гость.
Предлагаем пройти революционный курс по гитаре.
Подарок от PrimaNota.Ru, забирай!