PrimaNota.ru - самый крупный в мире бесплатный архив песенных текстов, аккордов, табулатур и нот


Mucky Pup - The T.V.'s On Fire - текст песни, бас-таба, видео

Регистрация Запомнить меня
Войти через:  Facebook Google Twitter Vk Yandex Mail.ru

Mucky Pup - The T.V.'s On Fire - текст песни, бас-таба, видео

Печатать
Просмотров: 100
-----------------------------------------------------------------------------
                            Mucky Pup - The TV's on fire (album Lemonade)
-----------------------------------------------------------------------------

Tabbed By : fumanchu001
e-mail: fumanchu@centrum.sk

If you find big mistakes in this tab, please send me a mail.
If you find small one, just put it in a comment.
Enjoy!

Tuning: EADG


Verse:

E|--33-----------11-----------5--|
A|----------3------------1-------|
D|-----0-3----------0-1----------|
G|-------------------------------|


Chorus:

E|--3-----1-----|
A|-----3-----1--|
D|--------------|
G|--------------|


Guitar Solo:

E|--33---------------3-11--------------5--|
A|----------3-33-3-3-----------1-11-1-----|
D|-----0-3----------------0-1-------------|
G|----------------------------------------|


| /  slide up
| \  slide down
| h  hammer-on
| p  pull-off
| ~  vibrato
| +  harmonic
| x  Mute note
=============================================================================
Добавлено: 22.10.2015
Другие материалы по этой песне:
  • Аккорды и текст

Страница создана 09.03.2012
http://primanota.ru/mucky-pup/the-tvs-on-fire-chords.htm
Привет, Гость.
Предлагаем пройти революционный курс по гитаре.
Подарок от PrimaNota.Ru, забирай!