PrimaNota.ru - самый крупный в мире бесплатный архив песенных текстов, аккордов, табулатур и нот


Mucky Pup - Deja Vu - бас-таба, видео

Регистрация Запомнить меня
Войти через:  Facebook Google Twitter Vk Yandex Mail.ru

Mucky Pup - Deja Vu - бас-таба, видео

Печатать
Просмотров: 82
-----------------------------------------------------------------------------
                   Mucky Pup - Deja Vu (album Lemonade)
-----------------------------------------------------------------------------

Tabbed By : fumanchu001
e-mail: fumanchu@centrum.sk

If you find big mistakes in this tab, please send me a mail.
If you find small one, just put it in a comment.
Enjoy!

Tuning: EADG

Verse:                           Verse out:
E|--0--0-------0--0------------||-3--3--5---6---5--|
A|-------5-6-7-----------------||------------------|
D|------------------0-7-6-0----||------------------|
G|-----------------------------||------------------|

Chorus:                    Chorus out: 
                           ,,Ou, over again...,,
E|--7--8--------------3--||--0-3--|
A|--------5---1---0------||-------|
D|-----------------------||-------|
G|-----------------------||-------|

Bridge:
,,I repeat myself...,,
E|--0--0-----------------|
A|--------7---5---1---0--|
D|-----------------------|
G|-----------------------|


| /  slide up
| \  slide down
| h  hammer-on
| p  pull-off
| ~  vibrato
| +  harmonic
| x  Mute note
=============================================================================
Добавлено: 22.10.2015
Другие материалы по этой песне:
  • Аккорды и текст

Страница создана 22.10.2015
http://primanota.ru/mucky-pup/deja-vu-chords.htm
Привет, Гость.
Предлагаем пройти революционный курс по гитаре.
Подарок от PrimaNota.Ru, забирай!