PrimaNota.ru - самый крупный в мире бесплатный архив песенных текстов, аккордов, табулатур и нот


Mucky Pup - Confessions - текст песни, бас-таба, видео

Регистрация Запомнить меня
Войти через:  Facebook Google Twitter Vk Yandex Mail.ru

Mucky Pup - Confessions - текст песни, бас-таба, видео

Печатать
Просмотров: 96
-----------------------------------------------------------------------------
                  Mucky Pup - Confessions (album Lemonade)
-----------------------------------------------------------------------------

Tabbed By : fumanchu001
e-mail: fumanchu@centrum.sk

If you find big mistakes in this tab, please send me a mail.
If you find small one, just put it in a comment.
Enjoy!

Tuning: EADG

Intro:
E|------------------------------------------|
A|--7----5----7---9-10----7----5----3----5--|
D|------------------------------------------|
G|------------------------------------------|

Verse:
E|----------------------------------------|
A|--7----5----7----5----7----5----3----5--|
D|----------------------------------------|
G|----------------------------------------|


Chorus:
E|-------------------|
A|--7-7--5-5--7---7--|
D|-------------------|
G|-------------------|

Bridge:            Bridge out:
E|--1-1-1-1-1-0--||--1-1-1-1-1-3--3-0-4--|
A|---------------||----------------------|
D|---------------||----------------------|
G|---------------||----------------------|

There is some small bass solo in the bridge between tacts, but I dont know what is it.
If you find out, please leave in a comment.

| /  slide up
| \  slide down
| h  hammer-on
| p  pull-off
| ~  vibrato
| +  harmonic
| x  Mute note
=============================================================================
Добавлено: 22.10.2015
Другие материалы по этой песне:
  • Аккорды и текст

Страница создана 30.04.2012
http://primanota.ru/mucky-pup/confessions-chords.htm
Привет, Гость.
Предлагаем пройти революционный курс по гитаре.
Подарок от PrimaNota.Ru, забирай!