PrimaNota.ru - самый крупный в мире бесплатный архив песенных текстов, аккордов, табулатур и нот


Mucky Pup - Beautiful People - текст песни, бас-таба, видео

Регистрация Запомнить меня
Войти через:  Facebook Google Twitter Vk Yandex Mail.ru

Mucky Pup - Beautiful People - текст песни, бас-таба, видео

Печатать
Просмотров: 85
-----------------------------------------------------------------------------
                            Mucky Pup - Beautiful People (album Lemonade)
-----------------------------------------------------------------------------

Tabbed By : fumanchu001
e-mail: fumanchu@centrum.sk

If you find big mistakes in this tab, please send me a mail.
If you find small one, just put it in a comment.
Enjoy!

Tuning: EADG


Verse:

E|--7---77---777------5----5--|
A|-----------------5-----5----|
D|----------------------------|
G|----------------------------|


Chorus:

E|--7-----5-55555---5--|
A|-----5----------5----|
D|---------------------|
G|---------------------|


Bridge:            bridge out:
                   4x
E|--2---0-3-------||--0-3-----|
A|----------3-2---||------3---|
D|----------------||----------|
G|----------------||----------|


| /  slide up
| \  slide down
| h  hammer-on
| p  pull-off
| ~  vibrato
| +  harmonic
| x  Mute note
=============================================================================
Добавлено: 22.10.2015
Другие материалы по этой песне:
  • Аккорды и текст

Страница создана 01.05.2012
http://primanota.ru/mucky-pup/beautiful-people-chords.htm
Привет, Гость.
Предлагаем пройти революционный курс по гитаре.
Подарок от PrimaNota.Ru, забирай!