PrimaNota.ru - самый крупный в мире бесплатный архив песенных текстов, аккордов, табулатур и нот


Much The Same - Moto - аккорды и текст, видео

Регистрация Запомнить меня
Войти через:  Facebook Google Twitter Vk Yandex Mail.ru

Much The Same - Moto - аккорды и текст, видео

Печатать
Просмотров: 112
Уроки эстрадного вокала в Санкт-Петербурге
Moto
Much The Same
---------------------------------------------------------------------
                       Much The Same - Liar
                       www.muchthesame.com
---------------------------------------------------------------------

Intro:
   G#m...  G#5   E   F#5  E5 Eb5   G#5   E   F#5  E5 Eb5
e|-4-------------0-----------------------0---------------------------
B|-4-------------0-----------------------0---------------------------
G|-4-------------1-----------8-----------1-----------8---------------
D|-6-------6-6---2---4-4--2--8-----6-6---2---4-4--2--8---------------
A|-6-------6-6---2---4-4--2--6-----6-6---2---4-4--2--6---------------
E|-4-------4-4---0---2-2--0--------4-4---0---2-2--0------------------

Chords during solo:
   G#5  E5  F#5  E5 Eb5   G#5  E5  F#5  E5 Eb5   G#5
e|-------------------------------------------------------------------
B|-------------------------------------------------------------------
G|------------------8----------------------8-------------------------
D|-6----2---4----2--8-----6----2---4----2--8-----6-------------------
A|-6----2---4----2--6-----6----2---4----2--6-----6-------------------
E|-4----0---2----0--------4----0---2----0--------4-------------------

Verse:
   G#5   E5   F#5   C#5 Eb5 E5 F#5   G#5   E5   F#5   E5 F#5
e|-------------------------------------------------------------------
B|-------------------------------------------------------------------
G|-------9----11----6---8---9--11----------9----11----9--11----------
D|-6-----9----11----6---8---9--11----6-----9----11----9--11----------
A|-6-----7----9-----4---6---7--9-----6-----7----9-----7--9-----------
E|-4---------------------------------4-------------------------------

Chorus:
   B5   F#5   G#5 F#5 E5   B5   F#5   G#5 F#5 E5  F#5 G#5
e|-------------------------------------------------------------------
B|-------------------------------------------------------------------
G|-4-----------------------4-----------------------------------------
D|-4----4-----6---4---2----4----4-----6---4---2---4---6--------------
A|-2----4-----6---4---2----2----4-----6---4---2---4---6--------------
E|------2-----4---2---0---------2-----4---2---0---2---4--------------

Verse Again, Chorus Again

End:
   G#m   E5   B5  F#  (4x)  
e|-------------------------------------------------------------------
B|-------------------------------------------------------------------
G|-------9-----------------------------------------------------------
D|-6-----9-----------------------------------------------------------
A|-6-----7----9---9--------------------------------------------------
E|-4----------7---6--------------------------------------------------

   G#5   E5   F#5   C#5 Eb5 E5 F#5  (2x)  G#5
e|-------------------------------------------------------------------
B|-------------------------------------------------------------------
G|-------9----11----6---8---9--11------------------------------------
D|-6-----9----11----6---8---9--11---------6--------------------------
A|-6-----7----9-----4---6---7--9----------6--------------------------
E|-4--------------------------------------4--------------------------

     
Добавлено: 07.10.2013
Вам также может быть интересно:
Другие материалы по этой песне:
  • Аккорды и текст

Страница создана 08.05.2012
http://primanota.ru/much-the-same/moto-chords.htm
Привет, Гость.
Предлагаем пройти революционный курс по гитаре.
Подарок от PrimaNota.Ru, забирай!