PrimaNota.ru - самый крупный в мире бесплатный архив песенных текстов, аккордов, табулатур и нот


Much The Same - Liar - аккорды и текст, видео

Регистрация Запомнить меня
Войти через:  Facebook Google Twitter Vk Yandex Mail.ru

Much The Same - Liar - аккорды и текст, видео

Печатать
Просмотров: 111
Liar
Much The Same
---------------------------------------------------------------------
                       Much The Same - Liar
                       www.muchthesame.com
---------------------------------------------------------------------

Intro:
   C  D5...  D5  Bb5  F5  A5  C  C  Co  Eo
e|-------------------------------------------------------------------
B|-------------------------------------------------------------------
G|-7------7------7---3------------7---7---5---9----------------------
D|--------7------7---3----3---7--------------------------------------
A|-5------5------5---1----3---7---5---5---3---7----------------------
E|------------------------1---5--------------------------------------

Verse:
   D5  Bb5  F5  A5  D5  Bb5  F5  A5  Bb5  D5  Bb5  D5  Bb5  D5  C5
e|-------------------------------------------------------------------
B|-------------------------------------------------------------------
G|-7---3------------7---3------------3----7---3----7---3----7---5----
D|-7---3----3---7---7---3----3---7---3----7---3----7---3----7---5----
A|-5---1----3---7---5---1----3---7---1----5---1----5---1----5---3----
E|----------1---5------------1---5-----------------------------------

Chorus:

   F5  C5  C Eo Fo Go  G5  Bb5  C5   
e|-------------------------------------------------------------------
B|-------------------------------------------------------------------
G|-----5---7--9--10-12------3----5-----------------------------------
D|-3---5----------------5---3----5-----------------------------------
A|-3---3---5--7--8--10--5---1----3-----------------------------------
E|-1--------------------3--------------------------------------------

   C Eo Fo Go Ao Bbo Go Fo Eo   Ao Bbo Co Bbo Ao Bbo Go Fo Eo
e|-------------------------------------------------------------------
B|-------------------------------------------------------------------
G|-7--9--10-12-14-15--12-10-9----14-15--17-15--14-15--12-10-9--------
D|-------------------------------------------------------------------
A|-5--7--8--10-12-13--10-8--7----12-13--15-13--12-13--10-8--7--------
E|-------------------------------------------------------------------

Verse Again, Chorus Again

Lead Part:
e|---------------------------      ----------------------------------
B|---------------------------      ---------------------1------------
G|---------------------------      -----2-232---------0--------------
D|---0-----2-----3---5-3-----      ---3-------3-----2----------------
A|-1---1-3---3-5---5-----5-3- (3x) -1-----------1-3------------------
E|---------------------------      ----------------------------------

Chords Under Lead:
   Bb  C  Dm  Bb  C  Dm  Bb  C  Dm  Bb            C       C   Fo
e|-1---0--1---1---0--1---1---0--1---1-------------0------------------
B|-3---1--3---3---1--3---3---1--3---3-------------1------------------
G|-3---0--2---3---0--2---3---0--2---3-------------0-------7----10----
D|-3---2--0---3---2--0---3---2--0---3-------------2------------------
A|-1---3--0---1---3--0---1---3--0---1-------------3-------5----8-----
E|-------------------------------------------------------------------

Verse Again, Chorus Again

Last Chorus:
   F5  C5  C Eo Fo Go Ao Go Fo Eo  G5  Bb5  C5    D5
e|-------------------------------------------------------------------
B|-------------------------------------------------------------------
G|-----5-------------------------------------------7-----------------
D|-3---5----------------------------5---3----5-----7-----------------
A|-3---3---5--7--8--10-12-10-8--7---5---3----5-----5-----------------
E|-1--------------------------------3---1----3-----------------------

     
Добавлено: 21.07.2013
Вам также может быть интересно:
Другие материалы по этой песне:
  • Аккорды и текст

Страница создана 29.06.2012
http://primanota.ru/much-the-same/liar-chords.htm
Привет, Гость.
Предлагаем пройти революционный курс по гитаре.
Подарок от PrimaNota.Ru, забирай!