PrimaNota.ru - самый крупный в мире бесплатный архив песенных текстов, аккордов, табулатур и нот


Mt Void - Toad - бас-таба, видео

Регистрация Запомнить меня
Войти через:  Facebook Google Twitter Vk Yandex Mail.ru

Mt Void - Toad - бас-таба, видео

Печатать
Просмотров: 96
Intro:
G|-----------------------------------------------|
D|-------5---------------------5-----------------|
A|-----57-7----3-0-2--------57--7----3-0-5-2-----|
D|-2-2-------2-------5--2-2--------2-------------|  X2

Verse 1:
G|----------------------------------------------|
D|-------5---------------------5----------------|
A|-----57-7----3-0-2--------57--7----3-0-5-2----|
D|-2-2-------2-------5--2-2--------2------------|

Then...

G|----------------------------------------------|
D|-------5---------------------5----------------|
A|-----57-7----3-0-2--------57--7----3-0-2------|
D|-2-2-------2-------5--2-2--------2-------5----|

Interlude (Polish Lyrics):
G|-------------------------------------------|
D|-------------------------------------------|
A|-/15--15--14-------------------------------|
D|--------------17--16--10-7-10--14-12-17----|

G|----------------------|
D|-------------17-16----|
A|-/15---15-14----------|
D|----------------------|

Verse 2:
G|----------------------------------------------|
D|-------5---------------------5----------------|
A|-----57-7----3-0-2--------57--7----3-0-2------|
D|-2-2-------2-------5--2-2--------2-------5----|

Then,

G|----------------------------------------------|
D|-------5---------------------5----------------|
A|-----57-7----3-0-2--------57--7----3-0-5-2----|
D|-2-2-------2-------5--2-2--------2------------|


Pre-Bridge:
G|------------------------------------|
D|------------------------------------|
A|-3-0-2---3-0-5-2-3-0-2---3-0-5-6----|
D|-------5----------------5-----------|

Bridge:
G|----------------7--------------12-------|
D|--------5----79--9-------12-14---14-----|
A|-----57--7------------------------------|
D|-2-2-------2-------2-2-2----------------| X4

[Take break for guitar part]

Verse 3:
G|----------------------------------------------|
D|-------5---------------------5----------------|
A|-----57-7----3-0-2--------57--7----3-0-5-2----|
D|-2-2-------2-------5--2-2--------2------------|

G|----------------------|   |----|
D|-------5--------------|   |14--| <-Use Wah effect
A|-----57--7----3-0-5-2-|   |----|
D|-2-2--------2---------|   |----|

http://www.myspace.com/mtvoidband
http://www.facebook.com/mtvoid?fref=ts
Добавлено: 23.11.2013
Вам также может быть интересно:
Другие материалы по этой песне:
  • Аккорды и текст

Страница создана 23.11.2013
http://primanota.ru/mt-void/toad-chords.htm
Привет, Гость.
Предлагаем пройти революционный курс по гитаре.
Подарок от PrimaNota.Ru, забирай!