PrimaNota.ru - самый крупный в мире бесплатный архив песенных текстов, аккордов, табулатур и нот


Mt Void - Dzien I Noc - бас-таба, видео

Регистрация Запомнить меня
Войти через:  Facebook Google Twitter Vk Yandex Mail.ru

Mt Void - Dzien I Noc - бас-таба, видео

Печатать
Просмотров: 110
Intro:
G|---------------------------------------------------------|
D|---------------------------------------------------------|
A|-5-7--------0-2------2-3-33-3-3-3-3----------------------|
D|----2-2-2-22---2-2-2----------------5-5-7-7-7-3-3-3-3----| X4

0:30:
G|---------------------------------------------------|
D|-----------------(Elevens)-------------------------|
A|-7-7-7-7-7-7-8-81111111111111010101010108-8--------|
D|---------------------------------------------------|

2:39: Break

2:48:
G|---------------------------------------------------|
D|---------------------------------------------------|
A|-8-7-7-7-7-7-8-81111111111111010101010108-8--------|
D|---------------------------------------------------| X2

3:03:
G|---------------------------------------------------------|
D|---------------------------------------------------------|
A|-5-7--------0-2------2-3-33-3-3-3-3----------------------|
D|----2-2-2-22---2-2-2----------------5-5-7-7-7-3-3-3-3----| X2

G|--------------------------------------------------|
D|--------------------------------------------------|
A|-7-7-7-7-7-7-8-81111111111111010101010108-8-------|
D|--------------------------------------------------| 'till end
Добавлено: 26.09.2013
Вам также может быть интересно:
Другие материалы по этой песне:
  • Аккорды и текст

Страница создана 26.09.2013
http://primanota.ru/mt-void/dzien-i-noc-chords.htm
Привет, Гость.
Предлагаем пройти революционный курс по гитаре.
Подарок от PrimaNota.Ru, забирай!