PrimaNota.ru - самый крупный в мире бесплатный архив песенных текстов, аккордов, табулатур и нот


Mt 8848 - Maski Maski - таба, видео

Регистрация Запомнить меня
Войти через:  Facebook Google Twitter Vk Yandex Mail.ru

Mt 8848 - Maski Maski - таба, видео

Печатать
Просмотров: 128
Уроки эстрадного вокала в Санкт-Петербурге
E---------10-9-------------------
B-6/10-10------12-10-9-----------
G----------------------11--------
D------------------------12------
A--------------------------10-10-
E--------------------------------



E--------10-9--------------------
B-6/10-10-----12-10-9----12-10---
G---------------------11-12-10---
D--------------------------------
A--------------------------------
E--------------------------------



E--------------------------------
B---------7-7--7-8-8-7-8-8/10-8-7
G-7-7-5-7-----7------------------
D--------------------------------
A--------------------------------
E--------------------------------
Добавлено: 08.06.2016
Вам также может быть интересно:
Другие материалы по этой песне:

Страница создана 17.06.2012
http://primanota.ru/mt-8848/maski-maski-chords.htm
Привет, Гость.
Предлагаем пройти революционный курс по гитаре.
Подарок от PrimaNota.Ru, забирай!