PrimaNota.ru - самый крупный в мире бесплатный архив песенных текстов, аккордов, табулатур и нот


Mstrkrft - Kennedy Killed The Hat - бас-таба, видео

Регистрация Запомнить меня
Войти через:  Facebook Google Twitter Vk Yandex Mail.ru

Mstrkrft - Kennedy Killed The Hat - бас-таба, видео

Печатать
Просмотров: 69
Kennedy Killed the Hat dance remix
MSTRKRFT

Tabbed by Bryan Hough

Extremely easy and fun song to play


Key:
/ = slide



Intro
G|----------------------------|
D|-------------------77--99---|
A|----------------------------|
E|-7--7-7--7-7-7-7------------|


Every other part
G|--------------------------------------------------------|
D|-------------------77--99----------------------55-------|
A|---------------------------------------------------5-7--|
E|-7--7-7--7-7-7-7-------------5--5-5--1/3--3-3-----------|



There are a few variations, which are easy enough to figure out on your own.
Добавлено: 03.09.2013
Другие материалы по этой песне:
  • Аккорды и текст

Страница создана 03.09.2013
http://primanota.ru/mstrkrft/kennedy-killed-the-hat-chords.htm
Привет, Гость.
Предлагаем пройти революционный курс по гитаре.
Подарок от PrimaNota.Ru, забирай!