PrimaNota.ru - самый крупный в мире бесплатный архив песенных текстов, аккордов, табулатур и нот


Msg - Red Sky - аккорды и текст, таба, видео

Регистрация Запомнить меня
Войти через:  Facebook Google Twitter Vk Yandex Mail.ru

Msg - Red Sky - аккорды и текст, таба, видео

Печатать
Просмотров: 157
Red Sky
Msg
		   Here are the riffs and solo, you can figure out the words.

Notation:
s    slide
h    hammer
p    pull off
b    bend
(n)  note bent to
tr   trill

Intro:
With wah set near the middle.
---------------------------------------------------
---------------------------------------------------
---------------------------------------------------
--------------------------------4--5--7--4h5p4-----
------5s--7--7-7s-5s-7-------7------------------5--
------------------------0--------------------------

---------------------------------------------------
---------------------------------------------------
---------------------------------------------------
---------------------------------------------------
------5s--7--7-7s-5s-7-------7--5--7---------------
------------------------0-------------0(whammydown to D)

---------------------------------------------------
---------------------------------------------------
---------------------------------------------------
--------------------------------4--5--7--4h5p4-----
------5s--7--7-7s-5s-7-------7------------------5--
------------------------0--------------------------

---------------------------------------------------
---------------------------------------------------
---------------------------------------------------
---------------------------------------------------
------5s--7--7-7s-5s-7-------7--5--7--5------------
------------------------0--------------------------

Verse Riff

---------------------------------------------------
----8----8--8--7--8-------------------8--8--7--7---
----9----9--9--7--9-------------------9--9--7--7---
---------------------------------------------------
---------------------------------------------------
---------------------------------------------------

Chorus riff

---------------------------------------------------
---------------------------------------------------
---------------------------------------------------
----9----9--9----9--9--7----7--7----7--7-----------
----7----7--7----7--7--5----5--5----5--5-----------
---------------------------------------------------

---------------------------------------------------
---------------------------------------------------
---------------------------------------------------
----9----9--9----9--9--5----5--5----5--5-----------
----7----7--7----7--7--3----3--3----3--3-----------
---------------------------------------------------

---------------------------------------------------
---------------------------------------------------
---------------------------------------------------
----5----5--5----5--5--7----7--7----7--7-----------
----3----3--3----3--3--5----5--5----5--5-----------
---------------------------------------------------

---------------------------------------------------
---------------------------------------------------
---------------------------------------------------
----9----9--9----9--9--9----9--9----9--9-----------
----7----7--7----7--7--7----7--7----7--7-----------
---------------------------------------------------

Solo
(I'm very close, but not exactly right. If you know you have it right, please
send it in.)

----------------------------------------------12--10--12----
--------------------------------12--10--12------------------
------------------12--11--12--------------------------------
----14--12--14----------------------------------------------
------------------------------------------------------------
------------------------------------------------------------

----14--15--17--15--17--19b-(21)--17--17b--(19)--14---------
------------------------------------------------------------
------------------------------------------------------------
------------------------------------------------------------
------------------------------------------------------------
------------------------------------------------------------

----------------------------------------------------------------
----11tr12-----------------------------------------12s--15--13--
------------11tr12-------------------------11tr12---------------
--------------------11tr12---------11tr12-----------------------
----------------------------9tr10-------------------------------
----------------------------------------------------------------

----------------------------------------------------------------
----12----------------------------------------------------------
-------14-12-11----12--11-------------14--14----14--11----------
----------------14--------14-12---------------------------------
--------------------------------14------------------------------
----------------------------------------------------------------

----------------------------------------------12--10--12----
--------------------------------12--10--12------------------
------------------12--11--12--------------------------------
----14--12--14----------------------------------------------
------------------------------------------------------------
------------------------------------------------------------

----14--15--17--15--17--19b-(21)--17--17b--(19)--14---------
------------------------------------------------------------
------------------------------------------------------------
------------------------------------------------------------
------------------------------------------------------------
------------------------------------------------------------

------------------------------------------------------------
----11tr12--------------------------------------------------
------------11tr12----------11tr12s--16--19--16--17--16-----
--------------------11tr12----------------------------------
------------------------------------------------------------
------------------------------------------------------------

----------------------------------------------------------------
----12----------------------------------------------------------
-------14-12-11----12--11---------------------------------------
----------------14--------14-12---------------------------------
--------------------------------14--------------12--------------
------------------------------------11----14----------14--------

(He overdubs the harmonies here, but if  you use a wah peddle at the
treble position, it is pretty clear.)

----------------------------------8--7tr8--
---------s12s--8s----12s--7----7-----------
---------s12s--9s----12s--8----------------
-------------------------------------------
-------------------------------------------
----0--------------------------------------

I improvise the last part of this solo so I never bothered to figure is out.

End solo main lick (Man, I hate the word lick!).

----12--------------------------12--------------------
--------15b(17)--12-----------------15b(17)--12-------
---------------------14b(16)---------------------14---
------------------------------------------------------
------------------------------------------------------
------------------------------------------------------

----12---------------12--14--15--14--12---------------
--------15b(17)--12-----------------------------------
------------------------------------------------------
------------------------------------------------------
------------------------------------------------------
------------------------------------------------------     
Добавлено: 30.09.2013
Другие материалы по этой песне:
  • Аккорды и текст

Страница создана 06.04.2012
http://primanota.ru/msg/red-sky-chords.htm
Привет, Гость.
Предлагаем пройти революционный курс по гитаре.
Подарок от PrimaNota.Ru, забирай!