PrimaNota.ru - самый крупный в мире бесплатный архив песенных текстов, аккордов, табулатур и нот


Msg - Gimme Your Love - таба, видео

Регистрация Запомнить меня
Войти через:  Facebook Google Twitter Vk Yandex Mail.ru

Msg - Gimme Your Love - таба, видео

Печатать
Просмотров: 136
If you have a more accurate version of this song or any questions you wanna ask 
me, please send me an e-mail to nabo_45@hotmail.com

The guitars are tuned 1/4 a step down.

Legend:
~ = vrabrato
p = pull off
b = bend
r = release note from bend
h = hammer on
+ = tap
w = whammy bar
/ = slide
/X = pick slide
pm = palm mute
(ps) = pick squeel or pinch harmonic
DB = dive bomb
/-\ = slide up and back down the neck quickly on that string

Intro:

E--------------------|
B--------------------|
G---------------7-7--|
D-9-9-9-9--9--9-7-7--|
A-7-7-7-7--7--7------|
E--------------------| x3


E----------------------------|
B----------------------------|
G--------------7-------------|
D-9-9-9-9-9--9-7-----------2-|
A-7-7-7-7-7--7-------------0-|
E----------------0-2b3b2-0---| x1

Intro guitar figure 2, palm mute:

E----------------------------------------|
B----------------------------------------|
G-9-7-6-4-4-2-2--2-1--1-2-1--1--1-2-1--1-|
D-9-7-7-5-5-4-4--4-2--2-4-2--2--2-4-2--2-|
A----------------------------------------|
E----------------------------------------| x1

Verse:
"Bet ya gettin the wrong idea 'bout me.."
E----------------------------------------|
B----------------------------------------|
G-9-7-6-4-4-2-2--2-1--1-2-1--1--1-2-1--1-|
D-9-7-7-5-5-4-4--4-2--2-4-2--2--2-4-2--2-|
A----------------------------------------|
E----------------------------------------| x1 Palm mute

"I tell you something, then mayby again I wont.."
E------------------------------------------|
B------------------------------------------|
G-9-7-6-4-4-2-2--2-1--1-2-1--1--1-2-1--1-7-|
D-9-7-7-5-5-4-4--4-2--2-4-2--2--2-4-2--2-5-|
A------------------------------------------|
E------------------------------------------| x1 Palm mute, except the last power chord.

"Time after time..."
E-----------------------------------------------|
B-----------------------------------------------|
G-----------------------------------------------|
D-5-7-5-7------------------3-5-3-5--------------|
A-3-5-3-5-3-5-7b8(ps)-5-3--1-3-1-3--------------|
E-----------------------------------------------| x1

"Don't waste my time..."
E--------------------------------------------|
B--------------------------------------------|
G--------------------------------------------|
D-5-7-5-7------------------3-5-3-5--3-7------|
A-3-5-3-5-3-5-7b8(ps)-5-3--1-3-1-3--1-5------|
E--------------------------------------------| x1

Chorus:

"Gimme your love..."
E--------------------|
B--------------------|
G---------------7-7--|
D-9-9-9-9--9--9-7-7--|
A-7-7-7-7--7--7------|
E--------------------| x3

E----------------------------|
B----------------------------|
G--------------7-------------|
D-9-9-9-9-9--9-7-----------2-|
A-7-7-7-7-7--7-------------0-|
E----------------0-2b3b2-0---| x1


1st. Solo:

E-15b17-12p15p12-------------------22b24-22-19p20p19-|
B-------------------------------12-------------------|
G----------------14----------------------------------|
D-------------------14p13p14p13----------------------|
A----------------------------------------------------|
E----------------------------------------------------|

E-12p9h12p9---------------11-12-14-14b15-12-14~~-17b19b17b19~~-|
B-----------10---12-12h14--------------------------------------|
G--------------9-----------------------------------------------|
D--------------------------------------------------------------|
A--------------------------------------------------------------|
E--------------------------------------------------------------|

That's all I got right now, gonna update it soon.
Добавлено: 02.05.2012
Другие материалы по этой песне:
  • Аккорды и текст

Страница создана 02.05.2012
http://primanota.ru/msg/gimme-your-love-chords.htm
Привет, Гость.
Предлагаем пройти революционный курс по гитаре.
Подарок от PrimaNota.Ru, забирай!