PrimaNota.ru - самый крупный в мире бесплатный архив песенных текстов, аккордов, табулатур и нот


Mrnorth - Love Is - аккорды и текст, видео

Регистрация Запомнить меня
Войти через:  Facebook Google Twitter Vk Yandex Mail.ru

Mrnorth - Love Is - аккорды и текст, видео

Печатать
Просмотров: 126
Уроки эстрадного вокала в Санкт-Петербурге
Love Is
Mrnorth
Main riff that starts pickup to bar 17
e|-----||-------------------|-----------------|-----------------|-----------------|
B|-----||-------------------|-----------------|-----------------|-----------------|
G|-----||-o-9-------9---9-9-|---7-7---7---7-7-|-7h9-9---9---9-9-|---7-7---7---7-7-|
D|-----||-o-7-------7---7-7-|---7-7---7---7-7-|-7---7---7---7-7-|---7-7---7---7-7-|
A|-0---||-------------------|-----------------|-----------------|-----------------|
E|-----||-------------------|-----------------|-----------------|-----------------|
   4 +      1 + 2 + 3 + 4 +   1 + 2 + 3 + 4 +   1 + 2 + 3 + 4 +   1 + 2 + 3 + 4 +
            Am

e|---------------------|-----------------|----------------------|-----------------|
B|---------------------|-----------------|----------------------|-----------------|
G|-10-------10---10-10-|---9-9---9---9-9-|-9h10-10---10---10-10-|---9-9---9---9\7-|
D|-7--------7----7--7--|---7-7---7---7-7-|-7----7----7----7--7--|---7-7---7---7\5-|
A|---------------------|-----------------|----------------------|-----------------|
E|---------------------|-----------------|----------------------|-----------------|
   Am/C

e|-----------------|-----------------|--------------------|-----------------|
B|-----------------|-----------------|--------------------|-----------------|
G|-7-------7---7-7-|---5-5---5---5-5-|-5h7----7---7---7-7-|---5-5---5-------|
D|-5-------5---5-5-|---5-5---5---5-5-|-5------5---5---5-5-|---5-5---5---5-5-|
A|-----------------|-----------------|--------------------|-----------------|
E|-----------------|-----------------|--------------------|-----------------|
   Fsus2

  __________________________________________________________________________
  1, 2                                                                      |
e|-----------------|-----------------|-----------------|--------------------||
B|-----------------|-----------------|-----------------|--------------------||
G|-5-------5---5-5-|---4-4---4---4-4-|-4h5-----5---5-5-|---2-2---2---2-2/-o-||
D|-0-------0---0-0-|---0-0---0---0-0-|-0-------0---0-0-|---0-0---0---0-0/-o-||
A|-----------------|-----------------|-----------------|--------------------||
E|-----------------|-----------------|-----------------|--------------------||
   1 + 2 + 3 + 4 +   1 + 2 + 3 + 4 +   1 + 2 + 3 + 4 +   1 + 2 + 3 + 4 +
   D7sus2                            ( Dm7 )

 ________________________________________________________________________
 | 3.
e|-----------------|-----------------|-----------------|-----------------|
B|-----------------|-----------------|-----------------|-----------------|
G|-5-------5---5-5-|---4-4---4---4-4-|-5-------5---5-5-|---2-2---2---0-0-|
D|-0-------0---0-0-|---2-2---2---2-2-|-2-------2---2-2-|---2-2---2---0-0-|
A|-----------------|-----------------|-----------------|-----------------|
E|-----------------|-----------------|-----------------|-----------------|
   1 + 2 + 3 + 4 +   1 + 2 + 3 + 4 +   1 + 2 + 3 + 4 +   1 + 2 + 3 + 4 +
   Am


ORDER: I V1 C AV C V2 O


[INTRO]
Am     | | | |
Am/C   | | | |
Fsus2  | | | |
D7sus2 | | | |

(riff)
Am     | | | |
Am/C   | | | |
Fsus2  | | | |
D7sus2 | | | |

(orchestra/strings)
Am     | | | |
Am/C   | | | |
Fsus2  | | | |
D7sus2 | | | |


[VERSE 1]
Am
Love, I'd die for it 
      Am
and I can't sleep because of it
      Am/C
And I chase my life away for it 
      Am/C
and I damn and I pray for it.
        Fsus2
And I'd kill and I'd take for it, 
Fsus2
run  blind after it
     D7sus2
into flames of desire lit
 ( Dm7 )
forsaken for the sake of it
Am
Love punches, it kicks
        Am
Now the child makes the adult tick
      Am/C
Every word skips the heart a click
      Am/C
Every tear weighs like a brick
Fsus2
Love, I can't resist
          Fsus2
cause you tempt hand over fist
        Am
And you break every arm and wrist
         Am
make the strong become the weak in jest


[CHORUS]
G
  And love will
F              Am | |
  will find us all
G
  And love will
F             Am  | |
  watch as we fall


[ALTERNATE VERSE]
Am
    You talk like you mean it
Am/C
    you lay bare your soul
       F7M  
    You     would do anything for love,
Dm7
    you spin out of control
Am
    You arrive on my doorstep,
Am/C
    your eyes black from crying
            F7M  
    Yeah you     would do anything for love,
               Am
    and I don't  like that, I just don't trust that


[CHORUS]
G
  And love will
F              Am | |
  will find us all
G
  And love will
F             Am  | |
  watch as we fall


[VERSE 2]
Am
Love I'm born and die with it
          Am
cause I'm blessed and I'm cursed with it
     Am/C
No escaping from the oldest sin 
   Am/C
of wanting end before begin
         Fsus2
From the teasing Eve that lies within, 
       Fsus2
Adam's fate dangles from a pin 
        D7sus2
when he entered the world by a sin 
     ( Dm7 )
and so death cast upon all men. 
Am
Love, I'll die for it 
         Am
and I'll never sleep because of it
         Am/C
'Cause I lose my night and day in it
       Am/C
so I'm damned if I will pray for it
            Fsus2
'Cause I've killed and I've taken it,
 
and tore up every single bit
      Am
But I can't find a trace of it,
   Am
forsaken for the sake of it


[OUTRO]
Am     | | | |
Am/C   | | | |
(orchestra/strings)
Fsus2  | | | |
D7sus2 | | | |

Am    | | | |
Am/C  | | | |
Fsus2 | | | |
Am    | | | |

Am | | | | |
Добавлено: 20.06.2016
Другие материалы по этой песне:
  • Аккорды и текст

Страница создана 20.06.2016
http://primanota.ru/mrnorth/love-is-chords.htm
Привет, Гость.
Предлагаем пройти революционный курс по гитаре.
Подарок от PrimaNota.Ru, забирай!