PrimaNota.ru - самый крупный в мире бесплатный архив песенных текстов, аккордов, табулатур и нот


Mree - Of The Trees - таба, видео

Регистрация Запомнить меня
Войти через:  Facebook Google Twitter Vk Yandex Mail.ru

Mree - Of The Trees - таба, видео

Печатать
Просмотров: 187
Уроки эстрадного вокала в Санкт-Петербурге
Mree - Of The Trees

Some of the notes of the D or G strings can't be played the way I wrote it down
because you have to shift your fingers to the next chord.
Just listen to the song to figure it out :).

This is my first tab, I hope it's understandable!

Intro:

e|-----------2---2----2---2----2---2----------------------------|
B|--3---3-----3---3----3---3----3---3---------------------------|
G|---4---4-----2---2----2---2----2---2--------------------------|
D|----4---4--0--0-----0--0-----0--0-----------------------------|
A|--2--2--------------------------------------------------------|
E|--------------------------------------------------------------|

e|-----------2---2----3---3----2---2----------------------------|
B|--3---3-----3---3----3---3----3---3---------------------------|
G|---4---4-----2---2----2---2----2---2--------------------------|
D|----4---4--0--0-----0--0-----0--0-----------------------------|
A|--2--2--------------------------------------------------------|
E|--------------------------------------------------------------|

e|------------------------------------------------------------------|
B|--3---3----2---2-------------0---0----0---0----0---0----0--0------|
G|---4---4----2---2---2---2-----0---0----0---0----0---0----0--0-----|
D|----4---4----2---2---0---0-----0---0----0---0----0---0----0--0----|
A|--2--2-----0--0-------0---0---------------------------------------|
E|--------------------2--2-----3--3-----3--3-----3--3-----3--3------|

e|--------------------------------------------------------------|
B|--3---3----2---2----------------------------------------------|
G|---4---4----2---2---2---2-------------------------------------|
D|----4---4----2---2---0---0---4~-------------------------------|
A|--2--2-----0--0-------0---0-----------------------------------|
E|--------------------2--2-----2~-------------------------------|

Verses:

e|-----------2---2----2---2----2---2----------------------------|
B|--3---3-----3---3----3---3----3---3---------------------------|
G|---4---4-----2---2----2---2----2---2--------------------------|
D|----4---4--0--0-----0--0-----0--0-----------------------------|
A|--2--2--------------------------------------------------------|
E|--------------------------------------------------------------|

e|-----------2---2----3---3----2---2----------------------------|
B|--3---3-----3---3----3---3----3---3---------------------------|
G|---4---4-----2---2----2---2----2---2--------------------------|
D|----4---4--0--0-----0--0-----0--0-----------------------------|
A|--2--2--------------------------------------------------------|
E|--------------------------------------------------------------|

e|--------------------------------------------------------------|
B|--3---3----2---2-------------0---0----0---0----0---0----0~----|
G|---4---4----2---2---2---2-----0---0----0---0----0---0---------|
D|----4---4----2---2---0---0-----0---0----0---0----0---0--------|
A|--2--2-----0--0-------0---0-----------------------------------|
E|--------------------2--2-----3--3-----3--3-----3--3-----3~----|


Prechorus: (Lost their place...)

e|--------------------------------------------------------------|
B|---------2---2-----2---2-----2---2-----2---2------------------|
G|-4----6---2---2-----2---2-----2---2-----2---2-----------------|
D|-5----7----2---2-----2---2-----2---2-----2---2----------------|
A|-5----7--0---0-----0---0-----0---0-----0---0------------------|
E|-3----5-------------------------------------------------------|

e|--------------------------------------------------------------|
B|---------2---2-----2---2-----3---3-----2---2------------------|
G|-4----6---2---2-----2---2-----2---2-----2---2-----------------|
D|-5----7----2---2-----2---2-----2---2-----2---2----------------|
A|-5----7--0---0-----0---0-----0---0-----0---0------------------|
E|-3----5-------------------------------------------------------|

e|--------------------------------------------------------------|
B|---------2---2-----2---2-----2---2-----2~---------------------|
G|-4----6---2---2-----2---2-----2---2---------------------------|
D|-5----7----2---2-----2---2-----2---2--------------------------|
A|-5----7--0---0-----0---0-----0---0-----0~---------------------|
E|-3----5-------------------------------------------------------|

Chorus: (So don't fall...)

e|--------------------2---2----2---2----------------------------|
B|--3---3----2---2-----3---3----3---3---------------------------|
G|---4---4----2---2-----2---2----2---2--------------------------|
D|----4---4----2---2--0--0-----0--0-----------------------------|
A|--2--2-----0--0-----------------------------------------------|
E|--------------------------------------------------------------|

e|--------------------2---2----2---2----------------------------|
B|--3---3----2---2-----3---3----3---3---------------------------|
G|---4---4----2---2-----2---2----2---2--------------------------|
D|----4---4----2---2--0--0-----0--0-----------------------------|
A|--2--2-----0--0-----------------------------------------------|
E|--------------------------------------------------------------|

e|--------------------------------------------------------------|
B|--3---3----2---2-------------0---0----0---0----0---0----------|
G|---4---4----2---2---2---2-----0---0----0---0----0---0---------|
D|----4---4----2---2---0---0-----0---0----0---0----0---0--------|
A|--2--2-----0--0-------0---0-----------------------------------|
E|--------------------2--2-----3--3-----3--3-----3--3-----------|

e|--------------------------------------------------------------|
B|--------------------------------------------------------------|
G|--6---6----6---6----6---6----6~-------------------------------|
D|---7---7----7---7----7---7------------------------------------|
A|----7---7----7---7----7---7-----------------------------------|
E|--5--5-----5--5-----5--5-----5~-------------------------------|


I hope this helped! Happy playing :)
Добавлено: 20.10.2015
Вам также может быть интересно:
Другие материалы по этой песне:
  • Аккорды и текст

Страница создана 20.10.2015
http://primanota.ru/mree/of-trees-chords.htm
Привет, Гость.
Предлагаем пройти революционный курс по гитаре.
Подарок от PrimaNota.Ru, забирай!