PrimaNota.ru - самый крупный в мире бесплатный архив песенных текстов, аккордов, табулатур и нот


Mree - Grow - таба, видео

Регистрация Запомнить меня
Войти через:  Facebook Google Twitter Vk Yandex Mail.ru

Mree - Grow - таба, видео

Печатать
Просмотров: 46
-------------------------------------------------------------------------------
                             GROW - Mree
-------------------------------------------------------------------------------
Tabbed by:shollan42
E-mail:shollan42@gmail.com

As far as I can tell, this should be exactly (if not extremely close to) what Marie plays in the song.
 
Tuning:DGCFAd

INTRO:
e|----0--0--0--0--0--0--0--0--0--0--0--0--0--0--0--0--0--0--0--0--0--0--0--0-------------------------|
B|----0--0--0--0--0--0--0--0--0--0--0--0--0--0--0--0--0--0--0--0--0--0--0--0-------------------------|
G|---13-13-13-13-13-13-13-13-13--8--8--8--6--6--6--6--6--6--6--6--6--6--6--6-------------------------|
D|---14-14-14-14-14-14-14-14-14--9--9--9--7--7--7--7--7--7--7--7--7--7--7--7-------------------------|X2
A|---14-14-14-14-14-14-14-14-14--9--9--9--7--7--7--7--7--7--7--7--7--7--7--7-------------------------|
E|---12-12-12-12-12-12-12-12-12--7--7--7--5--5--5--5--5--5--5--5--5--5--5--5-------------------------|

VERSE 1:
"Tell me how..."
e|----0--0--0--0--0--0--0--0--0--0--0--0--0--0--0--0--0--0--0--0--0--0--0--0-------------------------|
B|----0--0--0--0--0--0--0--0--0--0--0--0--0--0--0--0--0--0--0--0--0--0--0--0-------------------------|
G|---13-13-13-13-13-13--8--8--8--8--8--8--6--6--6--6--6--6--6--6--6--6--6--6-------------------------|
D|---14-14-14-14-14-14--9--9--9--9--9--9--7--7--7--7--7--7--7--7--7--7--7--7-------------------------|X2
A|---14-14-14-14-14-14--9--9--9--9--9--9--7--7--7--7--7--7--7--7--7--7--7--7-------------------------|
E|---12-12-12-12-12-12--7--7--7--7--7--7--5--5--5--5--5--5--5--5--5--5--5--5-------------------------|

"Cos I'm tired of falling..."
e|----0--0--0--0--0--0--0--0--0--0--0--0---0--0--0--0--0--0--0--0--0--0--0--0------------------------|
B|----0--0--0--0--0--0--0--0--0--0--0--0---0--0--0--0--0--0--0--0--0--0--0--0------------------------|
G|---13-13-13-13-13-13--8--8--8--8--8--8--13-13-13-13-13-13--6--6--6--6--6--6------------------------|
D|---14-14-14-14-14-14--9--9--9--9--9--9--14-14-14-14-14-14--7--7--7--7--7--7------------------------|
A|---14-14-14-14-14-14--9--9--9--9--9--9--14-14-14-14-14-14--7--7--7--7--7--7------------------------|
E|---12-12-12-12-12-12--7--7--7--7--7--7--12-12-12-12-12-12--5--5--5--5--5--5------------------------|

"Tell me how..."
e|----0--0--0--0--0--0--0--0--0--0--0--0--0--0--0--0--0--0--0--0--0--0--0--0-------------------------|
B|----0--0--0--0--0--0--0--0--0--0--0--0--0--0--0--0--0--0--0--0--0--0--0--0-------------------------|
G|---13-13-13-13-13-13--8--8--8--8--8--8--6--6--6--6--6--6--6--6--6--6--6--6-------------------------|
D|---14-14-14-14-14-14--9--9--9--9--9--9--7--7--7--7--7--7--7--7--7--7--7--7-------------------------|
A|---14-14-14-14-14-14--9--9--9--9--9--9--7--7--7--7--7--7--7--7--7--7--7--7-------------------------|
E|---12-12-12-12-12-12--7--7--7--7--7--7--5--5--5--5--5--5--5--5--5--5--5--5-------------------------|

VERSE 2:
"Teach me how"
e|----0--0--0--0--0--0--0--0--0--0--0--0--0--0--0--0--0--0--0--0--0--0--0--0-------------------------|
B|----0--0--0--0--0--0--0--0--0--0--0--0--0--0--0--0--0--0--0--0--0--0--0--0-------------------------|
G|---13-13-13-13-13-13--8--8--8--8--8--8--6--6--6--6--6--6--6--6--6--6--6--6-------------------------|
D|---14-14-14-14-14-14--9--9--9--9--9--9--7--7--7--7--7--7--7--7--7--7--7--7-------------------------|X2
A|---14-14-14-14-14-14--9--9--9--9--9--9--7--7--7--7--7--7--7--7--7--7--7--7-------------------------|
E|---12-12-12-12-12-12--7--7--7--7--7--7--5--5--5--5--5--5--5--5--5--5--5--5-------------------------|

"Cos the whole world is changing..."
e|----0--0--0--0--0--0--0--0--0--0--0--0---0--0--0--0--0--0--0--0--0--0--0--0------------------------|
B|----0--0--0--0--0--0--0--0--0--0--0--0---0--0--0--0--0--0--0--0--0--0--0--0------------------------|
G|---13-13-13-13-13-13--8--8--8--8--8--8--13-13-13-13-13-13--6--6--6--6--6--6------------------------|
D|---14-14-14-14-14-14--9--9--9--9--9--9--14-14-14-14-14-14--7--7--7--7--7--7------------------------|
A|---14-14-14-14-14-14--9--9--9--9--9--9--14-14-14-14-14-14--7--7--7--7--7--7------------------------|
E|---12-12-12-12-12-12--7--7--7--7--7--7--12-12-12-12-12-12--5--5--5--5--5--5------------------------|

"Tell me how..."
e|----0--0--0--0--0--0--0--0--0--0--0--0--0--0--0--0--0--0--0--0--0--0--0--0-------------------------|
B|----0--0--0--0--0--0--0--0--0--0--0--0--0--0--0--0--0--0--0--0--0--0--0--0-------------------------|
G|---13-13-13-13-13-13--8--8--8--8--8--8--6--6--6--6--6--6--6--6--6--6--6--6-------------------------|
D|---14-14-14-14-14-14--9--9--9--9--9--9--7--7--7--7--7--7--7--7--7--7--7--7-------------------------|
A|---14-14-14-14-14-14--9--9--9--9--9--9--7--7--7--7--7--7--7--7--7--7--7--7-------------------------|
E|---12-12-12-12-12-12--7--7--7--7--7--7--5--5--5--5--5--5--5--5--5--5--5--5-------------------------|

PRE-CHORUS
"Cos I'm just a kid..."
e|----0--0--0--0--0--0--0--0--0--0--0--0---0--0--0--0--0--0--0--0--0--0--0--0------------------------|
B|----0--0--0--0--0--0--0--0--0--0--0--0---0--0--0--0--0--0--0--0--0--0--0--0------------------------|
G|----6--6--6--8--8--8--6--6--6--8--8--8--13-13-13-13-13-13-13-13-13-13-13-13------------------------|
D|----6--6--6--9--9--9--7--7--7--9--9--9--14-14-14-14-14-14-14-14-14-14-14-14------------------------|
A|----4--4--4--9--9--9--7--7--7--9--9--9--14-14-14-14-14-14-14-14-14-14-14-14------------------------|
E|----x--x--x--7--7--7--5--5--5--7--7--7--12-12-12-12-12-12-12-12-12-12-12-12------------------------|

"Mother and Father..."
e|----0--0--0--0--0--0--0--0--0--0--0--0--0--0--0--0--0--0--0--0--0--0--0--0-------------------------|
B|----0--0--0--0--0--0--0--0--0--0--0--0--0--0--0--0--0--0--0--0--0--0--0--0-------------------------|
G|----6--6--6--8--8--8--6--6--6--6--6--6--8--8--8--8--8--8--8--8--8--8--8--8-------------------------|
D|----6--6--6--9--9--9--7--7--7--7--7--7--9--9--9--9--9--9--9--9--9--9--9--9-------------------------|
A|----4--4--4--9--9--9--7--7--7--7--7--7--9--9--9--9--9--9--9--9--9--9--9--9-------------------------|
E|----x--x--x--7--7--7--5--5--5--5--5--5--7--7--7--7--7--7--7--7--7--7--7--7-------------------------|

CHORUS:
"Grow..."
e|---0--0--0--0--0--0--0--0--0--0--0--0--0--0--0--0--0--0--0--0--0--0--0--0--------------------------|
B|---0--0--0--0--0--0--0--0--0--0--0--0--0--0--0--0--0--0--0--0--0--0--0--0--------------------------|
G|--13-13-13-13-13-13--6--6--6--6--6--6--8--8--8--8--8--8--6--6--6--6--6--6--------------------------|
D|--14-14-14-14-14-14--6--6--6--6--6--6--9--9--9--9--9--9--7--7--7--7--7--7--------------------------|X2
A|--14-14-14-14-14-14--4--4--4--4--4--4--9--9--9--9--9--9--7--7--7--7--7--7--------------------------|
E|--12-12-12-12-12-12--x--x--x--x--x--x--7--7--7--7--7--7--5--5--5--5--5--5--------------------------|

INTRO (X2 just like original intro)

PRE-CHORUS

CHORUS

ENDING (Intro chords)

Do the ending as many time as you'd like (if you like that sort of thing). If not, she does plays the ending
chord loop twice and ends on the last chord (rather than returning to the first chord).

Happy strumming.




************************************

| /   slide up
| \   slide down
| h   hammer-on
| p   pull-off
| ~   vibrato
| +   harmonic
| x   Mute note
| b   Bend
| pb  Pre-bend
| br  Bend release
| pbr Pre-bend release
| brb Bend release bend

************************************
Добавлено: 24.06.2016
Другие материалы по этой песне:
  • Аккорды и текст

Страница создана 24.06.2016
http://primanota.ru/mree/grow-chords.htm
Привет, Гость.
Предлагаем пройти революционный курс по гитаре.
Подарок от PrimaNota.Ru, забирай!